Song name
# A B C D E F G H I J K L M N O P Q R S T U V W X Y Z

The View - Wastelands tab

The View        
Wastelands
Rhythm Tab

Standard Tuning - (E A D G B e)
 


Verse


    Em       C         Em       B
E|--7-7-7-7--8-8-8-8---7-7-7-7--7-7-7-7-----|
B|--8-8-8-8--8-8-8-8---8-8-8-8--7-7-7-7-----|
G|--9-9-9-9--9-9-9-9---9-9-9-9--8-8-8-8-----|
D|--9-9-9-9--10101010--9-9-9-9--9-9-9-9-----|
A|--7-7-7-7--10101010--7-7-7-7--9-9-9-9-----|
e|-----------8-8-8-8------------7-7-7-7-----|



Chorus/Last Verse/Outro


    Em     D       C       B
E|--7-x-x--10-x-x--8--x-x--7------|
B|--8-x-x--10-x-x--8--x-x--7------|
G|--9-x-x--11-x-x--9--x-x--8------|
D|--9-x-x--12-x-x--10-x-x--9------|
A|--7-x-x--12-x-x--10-x-x--9------|
e|----x-x--10-x-x--8--x-x--7------|

Intro / Solos on other tabs

Tap to rate this tab
# A B C D E F G H I J K L M N O P Q R S T U V W X Y Z