Song name
# A B C D E F G H I J K L M N O P Q R S T U V W X Y Z

The Village Green - Let It Go tab

*  Tremolo picking

Intro/Verse
e|--------------------------------------------------|
B|--------------------------------------------------|
G|--------------------------------------------------|
D|--4--4---7--7--7----------10--10--10--9---9---9---|
A|--4--4---7--7--7----3X----10--10--10--9---9---9---|
E|--2--2---5--5--0----------8---8---8---7---7---0---|


Chorus
e|--------------------------------------------------|
B|--------------------------------------------------|
G|---2--------4-------------------------------------|
D|---2--------4-------------------------------------|
A|---0--------2-------------------------------------|
E|--------------------------------------------------|


Solo
e|-----------------------------------------------------|
B|-----------------------------------------------------|
G|--11*--------9*--------6*-------5*------4*-----------|
D|-----------------------------------------------------|
A|-----------------------------------------------------|
E|-----------------------------------------------------|


Intro/Verse  8x
Chorus         2x
Intro/Verse  5x
Chorus         2x
Intro/Verse  2x
Solo
Intro/Verse  1x
Chorus          2x
Intro/Verse   2x
Tap to rate this tab
 
# A B C D E F G H I J K L M N O P Q R S T U V W X Y Z