Song name
# A B C D E F G H I J K L M N O P Q R S T U V W X Y Z

The Waking Eyes - On A Train tab

Highlighted       Show chord diagrams
Intro: 
e|--------0-----------0----------------------------------|
B|-----1-----1-----1-----1-----1--3--1-----1--3--1-------|
G|--0-----------3-----------2-----------1--------------o-|
D|-----------------------------------------------------o-|
A|-------------------------------------------------------|
E|-------------------------------------------------------|

e|-------------------------------------------------------|
B|-----0--1--0-----0--1--0-----0--1--0--3--0--1----------|
G|--0----------------------------------------------------|
D|--------------3-----------2----------------------------|
A|-------------------------------------------------------|
E|-------------------------------------------------------|


   C                 D 
Here smokin' on a train
                F
leanin' on the pain
                         C    G    F 
'Cause all I have is my own hard luck
             C                D 
Yeah I took off, had to get away
                  F                         C     G    F
I didn't want to pay, a penance to all the cold hard luck

Somehow I knew your intetion was to


  C          Bb          F      G#       C   Bb   F   G#
Wrap me up around and around, lock me away
  C               Bb          F      G#          C   Bb   F  G#  G
So I just put my foot on the ground, I walked away


 C                 D                    F
No way to tell me when, I screw it up again
                   C   G    F
Falling victim to my hard luck
             C                     D
Yeah I was blind, I just couldn't find
                  F                           C     G    F  
You silhouette behind, the spectre of all my hard luck again
             G#                     
Somehow I knew your intention was to


  C          Bb          F      G#        C   Bb   F   G#  G
Wrap me up around and around, lock me away
  C                Bb          F      G#        C   Bb   F  G#  G 
So I just put my foot on the ground, I walked away


F        E     D
I'm leaving, babe


     F         G             C          E
To go back to my place, get out of the rat race
    F         G          C        E
Those at the table, are ready and able  
   F            G          C          E
To put something on it, better be chronic
   F           G          C
Watchin' the night slip away


Wrap me up around and around, lock me away

G# G
C Bb F G#
C Bb F G# G


  C          Bb         F       G#       C   Bb   F   G#
Wrap me up around and around, lock me away
  C               Bb           F     G#         C   Bb   F  G# G
So I just put my foot on the ground, I walked away
  C          Bb         F      G#        C   Bb
Wrap me up around and around, lock me away
  F             G#
Had to leave you baby
 C           Bb          F     
Wrap me up around and around
 G#          C   Bb   F
I walked away
       G#                 G        G C D D#
So i'm leaving on a train


Tap to rate this tab
 
# A B C D E F G H I J K L M N O P Q R S T U V W X Y Z