Song name
# A B C D E F G H I J K L M N O P Q R S T U V W X Y Z

The Weeks - Buttons tab

i am honored to be the one who gets to submit the very first tab to ultimate-
guitar from the greatest local band ever! get down to jackson mississippi and check um out.

here's a link to their myspace
http://www.myspace.com/theweeks

also a link to this video on youtube
http://www.youtube.com/watch?v=vdmeqfPvypA

standard tuning. You can experiment with palm mutes on the open notes

-----------------------------------------------------------------
                        THE WEEKS- BUTTONS
                    label: Esperanza Plantation
-----------------------------------------------------------------

INTRO
|--0-0-------------------------------------------------------------------|
|--0-0-------------------------------------------------------------------|
|--9-9-------------------------------------------------------------------|
|--9-9-------------------------------------------------------------------|
|--7-7-------9-11----9-11----9-11----9-7-----9-11----9-11----9-11----9-7-|
|--0-0---0-0-----0-0-----0-0-----0-0-----0-0-----0-0-----0-0-----0-0-----|

|--------------------------------------|
|--------------------------------------|
|--------------------------------------|
|--------------------------------------|
|-----12-14----12-14----12-14----12-11-|
|-0-0------0-0------0-0------0-0-------|

|-----------------------------------|
|-----------------------------------|
|-----------------------------------|
|-----------------------------------|
|------9-11----9-11----9-11----9-7--|
|--0-0-----0-0-----0-0-----0-0------|

VERSE
|------------------------------------------------------------------|
|------------------------------------------------------------------|
|------------------------------------------------------------------|
|------------------------------------------------------------------|
|------9-11----9-11----9-11----9-7-----9-11----9-11----9-11----9-7-|
|--0-0-----0-0-----0-0-----0-0-----0-0-----0-0-----0-0-----0-0-----|

|----------------------------------------------|
|----------------------------------------------|
|----------------------------------------------|
|----------------------------------------------|
|-------9-7----7-6----6-4----4-6----6-7----7-9-|
|----0-0---0-0----0-0----0-0----0-0----0-0-----|

|-----------------------------------------------------------|
|-----------------------------------------------------------|
|-----------------------------------------------------------|
|-------14-----14-----14-----14-----14-----14-----14-----14-|
|-----------------------------------------------------------|
|--0-00---0-00---0-00---0-00---0-00---0-00---0-00---0-00----|

|------------------------------------------------------------------|
|------------------------------------------------------------------|
|------------------------------------------------------------------|
|------------------------------------------------------------------|
|------9-11----9-11----9-11----9-7-----9-11----9-11----9-11----9-7-|
|--0-0-----0-0-----0-0-----0-0-----0-0-----0-0-----0-0-----0-0-----|

|----------------------------------------------|
|----------------------------------------------|
|----------------------------------------------|
|----------------------------------------------|
|-------9-7----7-6----6-4----4-6----6-7----7-9-|
|----0-0---0-0----0-0----0-0----0-0----0-0-----|

|-----------------------------------------------------------|
|-----------------------------------------------------------|
|-----------------------------------------------------------|
|-------14-----14-----14-----14-----14-----14-----14-----14-|
|-----------------------------------------------------------|
|--0-00---0-00---0-00---0-00---0-00---0-00---0-00---0-00----|

|------------------------------------------------------------------|
|------------------------------------------------------------------|
|------------------------------------------------------------------|
|------------------------------------------------------------------|
|------9-11----9-11----9-11----9-7-----9-11----9-11----9-11----9-7-|
|--0-0-----0-0-----0-0-----0-0-----0-0-----0-0-----0-0-----0-0-----|

PRE CHORUS
|---------------------------------------------------|
|-------17-------17--------------17-------17--------|
|----16-------16-------16-----16-------16-------16--|
|-14-------14-------14-----16-------16-------16-----|
|---------------------------------------------------|
|---------------------------------------------------|

|-----------------------------------------------------|
|--------17-------17--------------17-------17---------|
|--14-16----14-16----14-16-----16-------16-------16---|
|---------------------------16-------16-------16------|
|-----------------------------------------------------|
|-----------------------------------------------------|
	4x

CHORUS
|-----------------------------------------------------------------------|
|-----------------------------------------------------------------------|
|---9-9-9-9-9-9-9-9--6-6-6-6-6-6-6-6--9-9-9-9-9-9-9-9--8-8-8-8-8-8-8-8--|
|---9-9-9-9-9-9-9-9--7-7-7-7-7-7-7-7--9-9-9-9-9-9-9-9--9-9-9-9-9-9-9-9--|
|---7-7-7-7-7-7-7-7--7-7-7-7-7-7-7-7--7-7-7-7-7-7-7-7--9-9-9-9-9-9-9-9--|
|---0-0-0-0-0-0-0-0--5-5-5-5-5-5-5-5--0-0-0-0-0-0-0-0--7-7-7-7-7-7-7-7--|
	4x

VERSE 2
|------------------------------------------------------------------|
|------------------------------------------------------------------|
|------------------------------------------------------------------|
|------------------------------------------------------------------|
|------9-11----9-11----9-11----9-7-----9-11----9-11----9-11----9-7-|
|--0-0-----0-0-----0-0-----0-0-----0-0-----0-0-----0-0-----0-0-----|
2x

|----------------------------------------------|
|----------------------------------------------|
|----------------------------------------------|
|----------------------------------------------|
|-------9-7----7-6----6-4----4-6----6-7----7-9-|
|----0-0---0-0----0-0----0-0----0-0----0-0-----|

|-----------------------------------------------------------|
|-----------------------------------------------------------|
|-----------------------------------------------------------|
|-------14-----14-----14-----14-----14-----14-----14-----14-|
|-----------------------------------------------------------|
|--0-00---0-00---0-00---0-00---0-00---0-00---0-00---0-00----|


|------------------------------------------------|
|------------------------------------------------|
|------------------------------------------------|
|---14-14------14-14------14-14------14-14-------|
|---------12-14------12-14------12-14------12-11-|
|------------------------------------------------|
2x

|------------------------------------------------------------------------------|
|------------------------------------------------------------------------------|
|------------------------------------------------------------------------------|
|------------------------------------------------------------------------------|
|---14-14-14-14-12-12-12-12-11-11-11-11-12-12-12-12-14-14-14-14-12-12-12-12-11-|
|------------------------------------------------------------------------------|


CHORUS (followed by instrumental chorus riff 1x)

FIRST VERSE PLAYED AGAIN ACAPELLA

CHORUS 2x

OUTRO
|------------------------------------------------|
|------------------------------------------------|
|------------------------------------------------|
|---14-14------14-14------14-14------14-14-------|
|---------12-14------12-14------12-14------12-11-|
|------------------------------------------------|
4x

|------------------------------------------------------------------|
|------------------------------------------------------------------|
|------------------------------------------------------------------|
|------------------------------------------------------------------|
|------9-11----9-11----9-11----9-7-----9-11----9-11----9-11----9-7-|
|--0-0-----0-0-----0-0-----0-0-----0-0-----0-0-----0-0-----0-0-----|
FADES OUT
Tap to rate this tab
 
# A B C D E F G H I J K L M N O P Q R S T U V W X Y Z