Song name
# A B C D E F G H I J K L M N O P Q R S T U V W X Y Z

The Whigs - Hundred Million tab

The intro is just noise in the key of G or at least thats how I do it :p

Pre-chorus
|-----------------------------------------|
|-----------------------------------------|
|-4-----4-4-4-4-4----4----4-4-4-4-4-------|
|-5-----5-5-5-5-5----5----5-5-5-5-5-------|
|-5-----5-5-5-5-5----5----5-5-5-5-5-------|
|-3-----3-3-3-3-3----3----3-3-3-3-3-------|

 Chorus 
I didn't tab every note but it gives you the idea
|--15-15-15-15-15-15-15/-10-10-10-10-10-10-10----|
|------------------------------------------------|
|------------------------------------------------|
|------------------------------------------------| X2
|------------------------------------------------|
|------------------------------------------------|

Bridge
I'm not positive about this part but It's as close as I've gotten
|------------------------------------------------|
|------------------------------------------------|
|------------------------------------------------|
|--------3-3-3-----------------------------------|
|---------------5--3-----------------------------|
|--3-3-3-------------3-3-3-3-3-3-3---------------|
or you can play the bass part 
|------------------------------------------------|
|------------------------------------------------|
|------------------------------------------------|
|--------3-3-3---------5--------5----------------|
|---------------5--3---------------5--3----------|
|--3-3-3-------------3----3-3-3------------------|
and end the bridge on
|------------------------------------------------|
|------------------------------------------------|
|------------------------------------------------|
|--------3-3-3-----5-----------------------------|
|---------------5--------------------------------|
|--3-3-3-----------------------------------------|
well thats all hope you enjoy this tab from one of the most underrated bands I have ever seen
Tap to rate this tab
 
# A B C D E F G H I J K L M N O P Q R S T U V W X Y Z