Song name
# A B C D E F G H I J K L M N O P Q R S T U V W X Y Z

The White Stripes - We Are Going To Be Friends tab

Verse:
 G               G               G               G
e|---------------|---------------|---------------|---------------|
B|--0-------0----|--0-------0----|--0-------0----|--0-------0----|
G|------0-------0|------0-------0|------0-------0|------0-------0| 
D|---------------|---------------|---------------|---------------|
A|---------------|---------------|---------------|---------------|
E|3---3---3---3--|3---3---3---3--|3---3---3---3--|3---3---3---3--|              G

|---------------|---------------|
|--1-------1----|--0-------0----|
|------0-------0|------0-------0|
|---------------|---------------|
|3---3---3---3--|---------------|
|---------------|3---3---3---3--|

Chorus:
 D       C       G               D       C       G
|---------------|---------------|---------------|---------------|
|--3-------1----|--0-------0----|--3-------1----|--0-------0----|
|------2-------0|------0-------0|------2-------0|------0-------0|
|0---0----------|---------------|0---0----------|---------------|
|--------3---3--|---------------|--------3---3--|---------------|
|---------------|3---3---3---3--|---------------|3---3---3---3--|

Bridge:
 C               G               C               G
|---------------|---------------|---------------|---------------|
|--1-------1----|--0-------0----|--1-------1----|--0-------0----|
|------0-------0|------0-------0|------0-------0|------0-------0|
|---------------|---------------|---------------|---------------|
|3---3---3---3--|---------------|3---3---3---3--|---------------|
|---------------|3---3---3---3--|---------------|3---3---3---3--|

 A               A               D               C
|---------------|---------------|---------------|---------------|
|--2---2---2---2|--2---2---2---2|--3---3---3---3|--1-------1----|
|----2-------2--|----2-------2--|----2-------2--|------0-------0|
|---------------|---------------|0-------0------|---------------|
|0-------0------|0-------0------|---------------|3---3---3---3--|
|---------------|---------------|---------------|---------------|

then just repeat
Tap to rate this tab
# A B C D E F G H I J K L M N O P Q R S T U V W X Y Z