Song name
# A B C D E F G H I J K L M N O P Q R S T U V W X Y Z

The White Stripes - Fell In Love With A Girl tab

Help us improve GuitareTab! Take a short survey!
Riff A
   B           A           D         E        
e|---------------------------------------------|
B|---------------------------------------------|
G|-4--4-4--4-4-2--2-2--2-2-7--7-7--7-9\--------|
D|-4--4-4--4-4-2--2-2--2-2-7--7-7--7-9\-2--2-2-|
A|-2--2-2--2-2-0--0-0--0-0-5--5-5--5-7\-2--2-2-|
E|--------------------------------------0--0-0-|

Riff B                                          Ending 1  Ending 2
e|-------------------------| |---------------------| |---|
B|-------------------------| |---------------------| |---|
G|-------------------------| |-7--7-7--7-9\--------| |-7-|
D|-4--4-4--4-4-7--7-7--7-7-| |-7--7-7--7-9\-2--2-2-| |-7-|
A|-4--4-4--4-4-7--7-7--7-7-| |-5--5-5--5-7\-2--2-2-| |-5-|
E|-2--2-2--2-2-5--5-5--5-5-| |--------------0--0-0-| |---|

Progression:
Riff A               x2
Riff B (w/ ending 1) x1
Riff B (w/ ending 2) x1  
Rest                 
(repeat 4 times?)
End with a B chord  
Related for Fell In Love With A Girl tab