Song name
# A B C D E F G H I J K L M N O P Q R S T U V W X Y Z

The White Stripes - Offend In Everyway tab

-------------------------------------------------------------------------------
		   Offend In Everyway - The White Stripes
-------------------------------------------------------------------------------
Tabbed by:Tom Cottey	
Written by:Jack and Meg White	

Tuning:Standard

Intro
e|---------------------------------------------------------------------------|
B|---------------------------------------------------------------------------|
G|---------------------------------------------------------------------------|
D|---0------------------3----------------------------------------------------|
A|------3--1--0------3----------0--1--3------1-------------------------------|
E|---------------3---3-------3------------1--1-------------------------------|



e|---------------------------------------------------------------------------|
B|---------------------------------------0-----------------------------------|
G|---------------0---------------2-------0---/3--2--0------0-----------------|
D|------------0----------5-3-5-------0---0--------------3--------------------|
A|---3--1--3--------3--------------------------------------------------------|
E|------------------3--------------------------------------------------------|



e|---------------------------------------------------------------------------|
B|---------------------------------------------------------------------------|
G|------------------------3--------------------------------------------------|
D|---------------------3-----------------------------------5-----------------|
A|---3---------1-2-3---3-----5-3-1-------3-------------1---5-----------------|
E|---3---3--5----------3------------5-3--3---1--3--5-------3-----------------|


Verse
e|---------------------------------------------------------------------------|
B|---------------------------------------------------------------------------|
G|----------------------------------------------7-7--7--7-7-7---------------|
D|---5-5--5-5--5---3-3--3-3--3---5-5--5-5--5----7-7--7--7-7-7----------------|
A|---5-5--5-5--5---3-3--3-3--3---5-5--5-5--5----5-5--5--5-5-5----------------|
E|---3-3--3-3--3---1-1--1-1--1---3-3--3-3--3---------------------------------|



e|---------------------------------------------0-0---------------------------|
B|---------------------------------------------2-2---------------------------|
G|-----------------5-5--5-5--5-----------------2-2---------------------------|
D|---5-5--5-5--5---5-5--5-5--5---3-3--3-3--3---2-2---------------------------|
A|---5-5--5-5--5---3-3--3-3--3---3-3--3-3--3---0-0---------------------------|
E|---3-3--3-3--3-----------------1-1--1-1--1---------------------------------|


Bridge
e|---------------------------------------------------------------------------|
B|---------------------------------------------------------------------------|
G|---------------------------------------------------------------------------|
D|-------------------5-5----------------3--3----------0---5-5----------------|
A|---5--3-----5------5-5------------3---3--3---3-1-3------5-5----------------|
E|---------6-----6---3-3---3--5--6------1--1--------------3-3----------------|



e|---------------------------------------------------------------------------|
B|---------------------------------------------------------------------------|
G|------------2--------------/3-3--2--0-----0-2-0----------------------------|
D|---5--3--5-----0-0--x-x----------------3----------5------------------------|
A|--------------------------------------------------5--------1-2-3--3--------|
E|--------------------------------------------------3---3-5------------------|



e|---------------------------------------------------------------------------|
B|---------------------------------------------------------------------------|
G|---------------------------------------------------------------------------|
D|--------0-------3--------------5-------------------------------------------|
A|---3-1----------3--------0-1---5-------------------------------------------|
E|-----------3-1--1---1-3--------3-------------------------------------------|

Outro
e|---------------------------------------------------------------------------|
B|---------------------------------------------------------------------------|
G|---------------------------------------------------------------------------|
D|---5-5--5-5---5-5--5------------------------5------------------------------|
A|---5-5--5-5---5-5--5-------5--3--1----------5------------------------------|
E|---3-3--3-3---3-3--3---3-------------5--3---3------------------------------|


e|---------------------------------------------------------------------------|
B|---------------------------------------------------------------------------|
G|-----------------------------------0--0--------------2---------------------|
D|-------------------3------------0-----0----5--3--5------0------------------|
A|---------1--3------3---3--1--3---------------------------------------------|
E|---3--5---------1--1-------------------------------------------------------|


e|---------------------------------------------------------------------------|
B|---0--0-----------------------0--------------------------------------------|
G|---0------/3-2-0-------0--0------------------------3-----------------------|
D|---0---------------3------0---------------------3-----3--------------------|
A|-----------------------------------------1-2-3-----------------------------|
E|----------------------------------3--5-------------------------------------|



e|---------------------------------------------------------------------------|
B|---------------------------------------------------------------------------|
G|---------------------------------------------------------------------------|
D|-------------------------------------------5-------------------------------|
A|---3--1---------------3----------------1---5-------------------------------|
E|---------5--3--1---3-----3---1--3--5-------3-------------------------------|

Structure:Intro, Verse 1, Bridge, Verse 2, Bridge, Verse 3, Bridge, Outro


| /  slide up
| \  slide down
| h  hammer-on
| p  pull-off
| ~  vibrato
| +  harmonic
| x  Mute note
===============================================================================
Tap to rate this tab
# A B C D E F G H I J K L M N O P Q R S T U V W X Y Z