Song name
# A B C D E F G H I J K L M N O P Q R S T U V W X Y Z

The White Stripes - Seven Nation Army tab

Tuning: E A D G B E
Intro:
G-------repeat through intro--
D-----------------------------
A-7-7-10-7--------------------
E----------10-8-7-------------
pm-----------------

Pre chorus:
G-------------------
D-5-------7---------
A-5--8x---7--8x-----
E-3-------5---------

Chorus:
e---------------------------
B---------------------------
G-9--9--12--9--7--5---4-----
D-9--9--12--9--7--5---4-----
A-7--7--10--7--5--3---2-----
E---------------------------

e-----------------------------
B-----------------------------
G-9--9--12--9--7--5--7--5---4-
D-9--9--12--9--7--5--7--5---4-
A-7--7--10--7--5--3--5--3---2-
E-----------------------------
repeat as many times needed

Post chorus:
G-------------------
D-5-------7---------
A-5--8x---7--8x-----
E-3-------5---------

Chorus is playing with solo
Solo:
e-----------------------------
B-----------------------------
G-9--9--12--9--9--12--14------
D--------------------------4x-

e-12-12-15-15-14-/---
B--------------------
G--------------------

e-12-12-15-17-15-15-17-15-14-/
B-----------------------------
G-----------------------------

e-12-12-14-12-17-15-/---
B-----------------------
G-----------------------

e-12-12-14-12-14-14-12--------
B----------------------13-12--
G-----------------------------(Listen to for correct timing)

End on:
e-------
B-------
G---9---
D---9---
A---7---
E-------
Tap to rate this tab
# A B C D E F G H I J K L M N O P Q R S T U V W X Y Z