Song name
# A B C D E F G H I J K L M N O P Q R S T U V W X Y Z

The White Tie Affair - Take It Home tab

			     Take It Home- The White Tie Affair
----------------------------------------------------------------------------
Tabbed by: Alli Blackerby
Email: Ablackerby@bellsouth.net

Tuning: Standard


Intro/Outro:
e|------------------------------------------------------------------------|
B|------------------------------------------------------------------------|
G|--14---12--11--9--12--11---9--7--14--12--11--9--9--9--11--11------------|
D|---x----x---x--x---x---x---x--x---x---x---x--x--x--x---x---x------------| x2
A|--12---10---9--7--10---9---7--5--12---10--9--7--7--7---9---9------------|
E|------------------------------------------------------------------------|

Verse:
e|------------------------------------------------------------------------|
B|------------------------------------------------------------------------|
G|-------------7-----------------------------2----------------------------|
D|-----9---5---7---7-------(x2)-then-- 2-----2----------------------------|
A|-----9---5---5---7-------------------2-----0-----------------------------|
E|-----7---3-------5-------------------0-----------------------------------|

Chorus:
e|------------------------------------------------------------------------|
B|------------------------------------------------------------------------|
G|--7---------------------------------------------------------------------|
D|--7---7---9---5---------------------------------------------------------|
A|--5---7---9---5---------------------------------------------------------|
E|------5---7---3---------------------------------------------------------|

Post Chorus (ice ice melt your heart)
e|------------------------------------------------------------------------|
B|------------------------------------------------------------------------|
G|--7---------------------------------------------------------------------|
D|--7---7---9---5---------------------------------------------------------|
A|--5---7---9---5---------------------------------------------------------|
E|------5---7---3---------------------------------------------------------|

Bridge (get a room and they say)
el-----------------------------------------------------------------------l
Bl-----------------------------------------------------------------------l
Gl-----------7-----------------------------------------------------------l
Dl---9---5---7---7-------------------------------------------------------l
Al---9---5---5---7-------------------------------------------------------l
El---7---3-------5-------------------------------------------------------l 

Bass Fill (2:18)
el-----------------------------------------------------------------------l
Bl-----------------------------------------------------------------------l
Gl-----------------------------------------------------------------------l
Dl-----------------------------------------------------------------------l
Al-----------------------------------------------------------------------l
El---10-10-10-10-10-10-10-10---5-5-5-5-5-5-5-5---7-7-7-7-7-7-7-7---3-----I



| /  slide up
| \  slide down
| h  hammer-on
| p  pull-off
| ~  vibrato
| +  harmonic
| x  Mute note
===============================================================================
Tap to rate this tab
 
# A B C D E F G H I J K L M N O P Q R S T U V W X Y Z