Song name
# A B C D E F G H I J K L M N O P Q R S T U V W X Y Z

The Word Alive - Mercy tab

Song: Mercy (Kanye West Cover)
Band: The Word Alive
Album: Punk Goes Pop Vol. 5
Tuning: Drop G# [Drop-D down 6 half steps] (G#,D#,G#,C#,F,a#)

Intro: (Guitar 1) OHHHH!!!!
e|--------------------------------------------------------------------------|
B|---3~~~-------------------------------------------------------------------|
G|---2~~~-------------------------------------------------------------------|
D|---0~~~--------0----------------------------------------------------------|
A|---0~~~--------0----------------------------------------------------------|
E|---0~~~--------0----------------------------------------------------------|

(Guitar 2) OHHHH!!!
e|--------------------------------------------------------------------------|
B|--------------------------------------------------------------------------|
G|--------------------------------------------------------------------------|
D|---12-12---16-13--12-12---16-13---------x2--------------------------------|
A|--------------------------------------------------------------------------|
E|--------------------------------------------------------------------------|

Hook: Guitar 1 (Lambo Mercy...)
e|--------------------------------------------------------------------------|
B|--------------------------------------------------------------------------|
G|--------------------------------------------------------------------------|
D|----0---0---0----00----00--00---0-----0-----------------------------------|
A|----0---0---0----00----00--00---0-----0-----------------------------------|
E|----0---0---0----00----00--00---0-----0-----------------------------------|
      *   *   *    **    **  **   *     *
Hook: Guitar 2
e|-------------------------------------------------------------12-12h15p12----|
B|----------------------------------------------------13-15-16----------------|
G|-------------------------------------------12-14-15-------------------------|
D|---12-12---16-13--12-12---16-13---12-14-15----------------------------------|
A|----------------------------------------------------------------------------|
E|----------------------------------------------------------------------------|
                                     *  *  *  *  *  *  *  *  *  *
Tap to rate this tab
# A B C D E F G H I J K L M N O P Q R S T U V W X Y Z