Song name
# A B C D E F G H I J K L M N O P Q R S T U V W X Y Z

The Wrong Side - Feeding Time At The Zoo tab

The Wrong Side - Feeding Time at The Zoo
The Wrong Side of The Grave

Tabbed by Greg

Tuning: Drop D

Listen to the song for timing and rhythm, the strumming might not be perfect but 
I'm sure you can work it out if you listen to the song.


e|-----------------------------|
G|-----------------------------|
B|-----------------------------|
D|-----------------------------|
A|-2~--------------------------|
D|-2~--------------------------|


e|-------------|
G|-------------|
B|-------------|
D|-------------|
A|-22222-8-7-3-|
D|-22222-8-7-3-|
    ....


e|-------------|
G|-------------|
B|-------------|
D|-------------|
A|-22222-8-7-3-|
D|-22222-8-7-3-|

e|--------|
G|--------|
B|--------|
D|--------|
A|-8-7-3-2|
D|-8-7-3-2|

guitar 2 fill, bend the note a little the second time.

e|---------|
G|---------|
B|---------|
D|--8-7----|
A|-----8-7v|
D|---------|


e|------------------------|
G|------------------------|
B|------------------------|
D|------------------------|
A|-2222222222222222-8-7-3-|
D|-2222222222222222-8-7-3-|
   ........


e|-------------|
G|-------------|
B|-------------|
D|-------------|
A|-22222-8-7-3-|
D|-22222-8-7-3-|
    ....

e|-------------|
G|-------------|
B|-------------|
D|-------------|
A|-22222-8-7-3-|
D|-22222-8-7-3-|

end

e|-------------|
G|-------------|
B|-------------|
D|-------------|
A|-2~-2--------|
D|-2~-2--------|
Tap to rate this tab
 
# A B C D E F G H I J K L M N O P Q R S T U V W X Y Z