Song name
# A B C D E F G H I J K L M N O P Q R S T U V W X Y Z

The Xx - Basic Space chords

The XX - Basic Space                     Tabbed by:ThatAwesomeGuy      
                                         E-mail:Punkov96@hotmail.co.uk 

No guitar verse 1

No guitar chorus

Verse 2
|----------------------------------------------------------------------|
|----------------------------------------------------------------------|
|-------15151515151515151515151515151514141414141414141414141414141414-|
|----------------------------------------------------------------------|X2
|----------------------------------------------------------------------|
|----------------------------------------------------------------------|

|-----------------------------------------------------------------------|
|-------------------------------15------15-----15-----------------------|
|-------1515151515151515---1515---151514141414141414141414141412121414-|
|-----------------------------------------------------------------------|   
|-----------------------------------------------------------------------|
|-----------------------------------------------------------------------|

|-----------------------------------------------------------------------|
|-------------------15-----15-----15------------------------------------|
|--1515151515151515---1515---1515---1414141414141414141414-12(let ring)-|
|-----------------------------------------------------------------------|
|-----------------------------------------------------------------------|
|-----------------------------------------------------------------------|

No guitar chorus

Bridge (Bass)

|--------------------------------5-----5-----7-----7------------------|
|---------------------------------------------------------------------|
|-6--6--6--6/10--10\5---5----3-----3-----5-----5----------------------|
|---------------------------------------------------------------------|

Verse 3

|---------------------------------------------------------------------|
|------------------------------15151515-------------------------------|
|------151515151515151515151515--------1414141414141414141412121414---|
|---------------------------------------------------------------------|
|---------------------------------------------------------------------|
|---------------------------------------------------------------------|


|---------------------------------------------------------------------|
|-----------------------1515151616161515------------------------------|
|-----1515151515151515------------------------141414141414141412------|
|---------------------------------------------------------------------|
|---------------------------------------------------------------------|
|---------------------------------------------------------------------|

Solo

|------------------------------|       
|------------15----------------|         
|--------12------14---12-------|    X2   
|------------------------------|       
|------------------------------|
|------------------------------|
                                             After 2nd Time 
|--------------------------------|       |-------------------|
|--------------------------------|       |-------------------|
|--12---12-H-1412---10----------|   X2  |----10/12----------|
|--------------------------------|       |-------------------|
|--------------------------------|       |-------------------|
|--------------------------------|       |-------------------|

|------------------------------|
|------------15----------------|
|--------12------14---12-------|    X2
|------------------------------|
|------------------------------|
|------------------------------|

|---------------------|
|---------------------|
|--12---12-H-14-------|
|---------------------|
|---------------------|
|---------------------|

Ending

|----------------------------------------| 
|----------------------------------------| 
|------14------12------15 (let ring)-----| 
|----------------------------------------| 
|----------------------------------------| 
|----------------------------------------|
Tap to rate this tab
# A B C D E F G H I J K L M N O P Q R S T U V W X Y Z