Song name
# A B C D E F G H I J K L M N O P Q R S T U V W X Y Z

Theatre Of Tragedy - New Man tab

Drop D Tuning


Verse (bass later plays the keynotes)
--------------------------------------|
--------------------------------------|
--------------------------------------|
-0-0-0-7-7-7-7-7-7-7-7-7-7-7-7-7-7----|
-0-0-0-7-7-7-7-7-7-7-7-7-7-7-7-7-7----|
-0-0-0-7-7-7-7-7-7-7-7-7-7-7-7-7-7----|

Refrain

--------------------------------------|
--------------------------------------|
--------------------------------------|
--5-5-5-5-5-8-7-5-3-3-3-3-3-3-3-3-----|
--5-5-5-5-5-8-7-5-3-3-3-3-3-3-3-3-----|
--5-5-5-5-5-8-7-5-3-3-3-3-3-3-3-3-----|
                      * its hard to hear what the guitar does beyond this point,
                        because of the lots of keys.
                        But i think the ending is right.
Tap to rate this tab
# A B C D E F G H I J K L M N O P Q R S T U V W X Y Z