Song name
# A B C D E F G H I J K L M N O P Q R S T U V W X Y Z

Theatres Des Vampires - Never Again tab

Song : Never Again
Artist : Theatres des Vampires
Genre : Gothic Metal
Album : Pleasure and Pain
Year : 2005
Tuning : Drop D (DADGBe)
Tabbed By : Valenten

Comments :
  * There's a second clean guitar that sometimes play in the background. It's hard 
to tab since it's also hard to hear at 

some points. However, this riff is based on the chords of the chorus... You should 
easily find good-sounding notes.
  * Pretty easy song


> Intro

e|--------------------------------------|
B|--------------------------------------|
G|--------------------------------------| 
D|--2-4-4-2-4---(2)-5---5---5-5-2-5-----| (x8)
A|--2-4-4-2-4---(2)-5---5---5-5-2-5-----|
D|--2-4-4-2-4---(2)-5---5---5-5-2-5-----|


> Verse 1 (no guitar except the clean one)

e|------|
B|------|
G|------|
D|--2---|
A|--2---|
D|--2---|
    (fade out)


> Chorus 1

  Bsus2 Csus2 Asus2 Bsus2
e|------------------------|
B|------------------------|
G|------------------------|
D|--4----5------2----4----| (x4)
A|--4----5------2----4----|
D|--4----5------2----4----|


> Bridge 1

e|--------------------------------------|
B|--------------------------------------|
G|--------------------------------------| 
D|--2-4-4-2-4---(2)-5---5---5-5-2-5-----| (x8)
A|--2-4-4-2-4---(2)-5---5---5-5-2-5-----|
D|--2-4-4-2-4---(2)-5---5---5-5-2-5-----|


> Verse 2 (no guitar except the clean one)

e|------|
B|------|
G|------|
D|--2---|
A|--2---|
D|--2---|
    (fade out)


> Chorus 2

  Bsus2 Csus2 Asus2 Bsus2
e|------------------------|
B|------------------------|
G|------------------------|
D|--4----5------2----4----| (x4)
A|--4----5------2----4----|
D|--4----5------2----4----|


> Bridge 2

e|----------|
B|----------|
G|----------| 
D|--2-4-----| (x2)
A|--2-4-----|
D|--2-4-----|

e|-------------------------------| 
B|-------------------------------| 
G|-------------------------------| 
D|--2-4------5---5---5---2-5-----| (x2)
A|--2-4------5---5---5---2-5-----|
D|--2-4------5---5---5---2-5-----|


> Chorus 3

  Bsus2 Csus2 Asus2 Bsus2
e|------------------------|
B|------------------------|
G|------------------------|
D|--4----5------2----4----| (x4)
A|--4----5------2----4----|
D|--4----5------2----4----|


> Outro

  Bsus2 Csus2 Asus2 Bsus2
e|------------------------|
B|------------------------|
G|------------------------|
D|--4----5------2----4----| (x8)
A|--4----5------2----4----|
D|--4----5------2----4----|
Tap to rate this tab
 
# A B C D E F G H I J K L M N O P Q R S T U V W X Y Z