Guitaretab - guitar tabs
Song name
# A B C D E F G H I J K L M N O P Q R S T U V W X Y Z

Them - Baby Please Dont Go tab

                 Them - Baby please don't go

                    tabulated by: flipmac


h-hamering on
p-pull off
r-relese
b-bend
m-mute


Have some slight dist on and use the neck mike.

|-------4-1-----|----------|
|-1-4-1-----4-1-|-(4)s6----|
|---------------|----------|
|---------------|----------|
|---------------|----------|
|---------------|----------|

|-------4-1-----|--------|
|-1-4-1-----4---|--------|
|---------------|-4------|
|---------------|--------|
|---------------|--------|
|---------------|--------|
                                                     1/4
|-------4-1-----|-1---------1---------------------------|---|
|-1-4-1-----4---|---4-1-------------1-3-----------------|---|
|---------------|-------3b5---5s3p1---------------------|---|
|---------------|-----------------------3---3---3-------|---|
|---------------|---------------------------------3-----|---|
|---------------|-----------------------------------4b--|-1-|

|------|--------------|----------|-----------|---------|
|------|--------------|----------|-----------|---------|
|------|--------------|----------|-----------|---------|
|------|-1------------|----------|-1---------|---------|
|--1h3-|-------1------|------1h3-|-----1-----|-----1h3-|
|------|-----------4--|-1--------|--------4--|-1-------|

"Baby please don't go"
[ Tab from: http://www.guitaretab.com/t/them/19196.html ]
|----------|-------------------|---------|----1----------------|
|----------|-------------------|---------|---------------------|
|----------|---1s3--1----------|---------|-3b4--3b4r3h1--------|
|-1--------|---1s3--1--3--3--3-|---------|--------------3--3-3-|
|-----1----|-----------3--3--3-|---------|---------------------|
|--------4-|-1-----------------|---------|---------------------|

"baby pleas dont go down to new orleans, you know I love you so..."

-------|--------------|--------
-------|--------------|--------
-------|--------------|---3s5--
-------|--------------|--------
-------|--------------|--------
-(6)s1-|-1------------|--------

fill:

-------|----------------13-------------|
-------|----------------13-------------|
-------|------13--10s--------10s-------|
-------|------13--10s--------10s-------| 2x
-------|-------------------------------|
-(6)s1-|-1-----------------------(6)s1-|


play this afew times:

then there is a part where the organ is silent and the guitar goes

 m m   m m m    m   m m
-----|--------|----------|
-----|--------|----------|
-----|--------|----------|
-----|-1------|----------| afew times
-1h3-|---1----|-----1h3--|
-----|-----4--|-1--------|

And some fills that sounds as above.. just play...
note: I havn't put much effort on this song I only tabed the most importent parts
flipmac@spray.se
Related for Baby Please Dont Go tab
×
Best way to learn
"Baby Please Dont Go"