Song name
# A B C D E F G H I J K L M N O P Q R S T U V W X Y Z

Theory Of A Deadman - Bad Girlfriend Acoustic tab

Bad Girlfriend Acoustic
Theory Of A Deadman
Scars & Souvenirs (2008)

Bad Girlfriend: written by Tyler Connolly, Dean Back, Dave Brenner

GTR I - Drop-D Tuning Acoustic (e,B,G,D,A,D)
GTR II - Drop-D Tuning Acoustic (e,B,G,D,A,D)

Intro

  GTR I
E|---------------------------------------------------------------|
B|---------------------------------------------------------------|
G|---------------------------------------------------------------|
D|-0-0-------------0-0---------3~-0-0-------------0-0---------3~-|
A|-0-0-5-4-3-0-3-5-0-0-5-4-3-0----0-0-5-4-3-0-3-5-0-0-5-4-3-0----|
D|-0-0-------------0-0------------0-0-------------0-0------------| 
 |                                                               |
 |GTR II                                                         |
E|---------------------------------------------------------------|
B|---------------------------------------------------------------|
G|---------------------------------------------------------------|
D|-0-0-------------0-0------------0-0-------------0-0------------|
A|-0-0-------------0-0------------0-0-------------0-0------------|
D|-0-0-------------0-0------------0-0-------------0-0------------| 


E|-----------------------------------------------------------------|
B|-----------------------------------------------------------------|
G|-----------------------------------------------------------------|
D|-0-0-------------0-0-------------0-0-------------0-0-------------|
A|-0-0-5-4-3-0-3-5-0-0-5-4-3-0-3-5-0-0-5-4-3-0-3-5-0-0-5-4-3-0-11\-|
D|-0-0-------------0-0-------------0-0-------------0-0---------11\-| 
 |                                                                 |
 |                                                                 |
E|-----x-x-x-x-x-x-----x-x-x-x-x-x-----x-x-x-x-x-x-----x-x-x-x-----|
B|-----x-x-x-x-x-x-----x-x-x-x-x-x-----x-x-x-x-x-x-----x-x-x-x-----|
G|-----x-x-x-x-x-x-----x-x-x-x-x-x-----x-x-x-x-x-x-----x-x-x-x-----|
D|-0-0-x-x-x-x-x-x-0-0-x-x-x-x-x-x-0-0-x-x-x-x-x-x-0-0-x-x-x-x-----|
A|-0-0-x-x-x-x-x-x-0-0-x-x-x-x-x-x-0-0-x-x-x-x-x-x-0-0-x-x-x-x-11\-|
D|-0-0-x-x-x-x-x-x-0-0-x-x-x-x-x-x-0-0-x-x-x-x-x-x-0-0-x-x-x-x-11\-|

Main Riff

E|-------------------------------------------------------------|
B|-------------------------------------------------------------|
G|-/10-7~----5/7-10-7~----5/7-10~--/10-7~----------------------|
D|---------------------------------------------/7-6-7-6-7-6----|
A|----------------------------------------------------------8--|
D|-------------------------------------------------------------|
 |                                                             |
 |                                                             |
E|-x--x-x-x-x-x-x----------------------------------------------|
B|-3--3-3-3-3-3-3----------------------------------------------|
G|-2--2-2-2-2-2-2-5--5-5-5-5-5-5----------------5--5-5-5-5-5-5-|
D|-0--0-0-0-0-0-0-5--5-5-5-5-5-5-5--5-5-5-5-5-5-5--5-5-5-5-5-5-|
A|-0--0-0-0-0-0-0-3--3-3-3-3-3-3-5--5-5-5-5-5-5-3--3-3-3-3-3-3-|
D|-0--0-0-0-0-0-0----------------5--5-5-5-5-5-5----------------|

E|-------------------------------------------------------------|
B|-----------------------------------------------/10910910910~-|
G|-/10-7~----5/7-10-7~----5/7-10~--/10-7~----------------------|
D|-------------------------------------------------------------|
A|-------------------------------------------------------------|
D|-------------------------------------------------------------|
 |                                                             |
 |                                                             |
E|-x--x-x-x-x-x-x----------------------------------------------|
B|-3--3-3-3-3-3-3----------------------------------------------|
G|-2--2-2-2-2-2-2-5--5-5-5-5-5-5----------------5--5-5-5-5-5-5-|
D|-0--0-0-0-0-0-0-5--5-5-5-5-5-5-5--5-5-5-5-5-5-5--5-5-5-5-5-5-|
A|-0--0-0-0-0-0-0-3--3-3-3-3-3-3-5--5-5-5-5-5-5-3--3-3-3-3-3-3-|
D|-0--0-0-0-0-0-0----------------5--5-5-5-5-5-5----------------|

Verse

E|-----------------------------------------------------------------|
B|-----------------------------------------------------------------|
G|-7-7-7-7-7-7-7-7-5-5-5-5-5-5-5-5-4-4-4-4-4-4-4-4-5-5-5-5-5-5-5-5-|
D|-7-7-7-7-7-7-7-7-5-5-5-5-5-5-5-5-5-5-5-5-5-5-5-5-5-5-5-5-5-5-5-5-|
A|-----------------------------------------------------------------|
D|-----------------------------------------------------------------|
 | . . . . . . . . . . . . . . . . . . . . . . . . . . . . . . . . |
 |                                                                 |
E|-----------------------------------------------------------------|
B|-----------------------------------------------------------------|
G|-7-7-7-7-7-7-7-7-5-5-5-5-5-5-5-5-4-4-4-4-4-4-4-4-5-5-5-5-5-5-5-5-|
D|-7-7-7-7-7-7-7-7-5-5-5-5-5-5-5-5-5-5-5-5-5-5-5-5-5-5-5-5-5-5-5-5-|
A|-----------------------------------------------------------------|
D|-----------------------------------------------------------------|
   . . . . . . . . . . . . . . . . . . . . . . . . . . . . . . . . 

E|-----------------------------------------------------------------|
B|-----------------------------------------------------------------|
G|-7-7-7-7-7-7-7-7-5-5-5-5-5-5-5-5-4-4-4-4-4-4-4-4-5-5-5-5-5-5-5-5-|
D|-7-7-7-7-7-7-7-7-5-5-5-5-5-5-5-5-5-5-5-5-5-5-5-5-5-5-5-5-5-5-5-5-|
A|-----------------------------------------------------------------|
D|-----------------------------------------------------------------|
 | . . . . . . . . . . . . . . . . . . . . . . . . . . . . . . . . |
 |                                                                 |
E|-----------------------------------------------------------------|
B|-----------------------------------------------------------------|
G|-7-7-7-7-7-7-7-7-5-5-5-5-5-5-5-5-4-4-4-4-4-4-4-4-5-5-5-5-5-5-5-5-|
D|-7-7-7-7-7-7-7-7-5-5-5-5-5-5-5-5-5-5-5-5-5-5-5-5-5-5-5-5-5-5-5-5-|
A|-----------------------------------------------------------------|
D|-----------------------------------------------------------------|
   . . . . . . . . . . . . . . . . . . . . . . . . . . . . . . . . 

E|-----------------------------------------------------------------|
B|-----------------------------------------------------------------|
G|-7-7-7-7-7-7-7-7-5-5-5-5-5-5-5-5-4-4-4-4-4-4-4-4-5-5-5-5-5-5-5-5-|
D|-7-7-7-7-7-7-7-7-5-5-5-5-5-5-5-5-5-5-5-5-5-5-5-5-5-5-5-5-5-5-5-5-|
A|-----------------------------------------------------------------|
D|-----------------------------------------------------------------|
 | . . . . . . . . . . . . . . . . . . . . . . . . . . . . . . . . |
 |                                                                 |
E|-----------------------------------------------------------------|
B|-----------------------------------------------------------------|
G|-7-7-7-7-7-7-7-7-5-5-5-5-5-5-5-5-4-4-4-4-4-4-4-4-5-5-5-5-5-5-5-5-|
D|-7-7-7-7-7-7-7-7-5-5-5-5-5-5-5-5-5-5-5-5-5-5-5-5-5-5-5-5-5-5-5-5-|
A|-----------------------------------------------------------------|
D|-----------------------------------------------------------------|
   . . . . . . . . . . . . . . . . . . . . . . . . . . . . . . . . 

Pre-Chorus

E|-----------------------------------------------------------------|
B|-----------------------------------------------------10-10-10-10-|
G|-7-7-7-7-7-7-7-7-10-10-10-10-10-10-10-10-13-13-13-13-10-10-10-10-|
D|-7-7-7-7-7-7-7-7-12-12-12-12-12-12-12-12-12-12-12-12-------------|
A|-----------------------------------------------------------------|
D|-----------------------------------------------------------------|
 | . . . . . . . .  .  .  .  .  .  .  .  .  .  .  .  .  .  .  .  . |
 |                                                                 |
E|-----------------------------------------------------------------|
B|-----------------------------------------------------10-10-10-10-|
G|-7-7-7-7-7-7-7-7-10-10-10-10-10-10-10-10-13-13-13-13-10-10-10-10-|
D|-7-7-7-7-7-7-7-7-12-12-12-12-12-12-12-12-12-12-12-12-------------|
A|-----------------------------------------------------------------|
D|-----------------------------------------------------------------|
   . . . . . . . .  .  .  .  .  .  .  .  .  .  .  .  .  .  .  .  . 

E|-----------------|
B|-13-13-13-13-----|
G|-12-12-12-12-5---|
D|-------------5-3-|
A|-------------3-3-|
D|---------------3-|
 |  .  .  .  .     |
 |                 |
E|-----------------|
B|-13-13-13-13-----|
G|-12-12-12-12-5---|
D|-------------5-3-|
A|-------------3-3-|
D|---------------3-|
    .  .  .  .

Chorus

E|-x--x-x-x-x-x-x----------------------------------------------|
B|-3--3-3-3-3-3-3----------------------------------------------|
G|-2--2-2-2-2-2-2-5--5-5-5-5-5-5----------------5--5-5-5-5-5-5-|
D|-0--0-0-0-0-0-0-5--5-5-5-5-5-5-5--5-5-5-5-5-5-5--5-5-5-5-5-5-|
A|-0--0-0-0-0-0-0-3--3-3-3-3-3-3-5--5-5-5-5-5-5-3--3-3-3-3-3-3-|
D|-0--0-0-0-0-0-0----------------5--5-5-5-5-5-5----------------|
 |                                                             |
 |                                                             |
E|-x--x-x-x-x-x-x----------------------------------------------|
B|-3--3-3-3-3-3-3----------------------------------------------|
G|-2--2-2-2-2-2-2-5--5-5-5-5-5-5----------------5--5-5-5-5-5-5-|
D|-0--0-0-0-0-0-0-5--5-5-5-5-5-5-5--5-5-5-5-5-5-5--5-5-5-5-5-5-|
A|-0--0-0-0-0-0-0-3--3-3-3-3-3-3-5--5-5-5-5-5-5-3--3-3-3-3-3-3-|
D|-0--0-0-0-0-0-0----------------5--5-5-5-5-5-5----------------|

E|-x--x-x-x-x-x-x--------------x---------------------------|
B|-3--3-3-3-3-3-3--------------x---------------------------|
G|-2--2-2-2-2-2-2-5--5-5-5-5-5-x----------------5--5--5--5-|
D|-0--0-0-0-0-0-0-5--5-5-5-5-5-x-5--5-5-5-5-5-5-5--5--5--5-|
A|-0--0-0-0-0-0-0-3--3-3-3-3-3-x-5--5-5-5-5-5-5-3--3--3--3-|
D|-0--0-0-0-0-0-0--------------x-5--5-5-5-5-5-5------------|
 |                                                         |
 |                                                         |
E|-x--x-x-x-x-x-x--------------x---------------------------|
B|-3--3-3-3-3-3-3--------------x---------------------------|
G|-2--2-2-2-2-2-2-5--5-5-5-5-5-x----------------5--5--5--5-|
D|-0--0-0-0-0-0-0-5--5-5-5-5-5-x-5--5-5-5-5-5-5-5--5--5--5-|
A|-0--0-0-0-0-0-0-3--3-3-3-3-3-x-5--5-5-5-5-5-5-3--3--3--3-|
D|-0--0-0-0-0-0-0--------------x-5--5-5-5-5-5-5------------|

Post Chorus

E|-------------------------------------------------------------|
B|-----------------------------------------------/10910910910~-|
G|-/10-7~----5/7-10-7~----5/7-10~--/10-7~----------------------|
D|-------------------------------------------------------------|
A|-------------------------------------------------------------|
D|-------------------------------------------------------------|
 |                                                             |
 |                                                             |
E|-x--x-x-x-x-x-x----------------------------------------------|
B|-3--3-3-3-3-3-3----------------------------------------------|
G|-2--2-2-2-2-2-2-5--5-5-5-5-5-5----------------5--5-5-5-5-5-5-|
D|-0--0-0-0-0-0-0-5--5-5-5-5-5-5-5--5-5-5-5-5-5-5--5-5-5-5-5-5-|
A|-0--0-0-0-0-0-0-3--3-3-3-3-3-3-5--5-5-5-5-5-5-3--3-3-3-3-3-3-|
D|-0--0-0-0-0-0-0----------------5--5-5-5-5-5-5----------------|

Verse 2

E|-----------------------------------------------------------------|
B|-----------------------------------------------------------------|
G|-7-7-7-7-7-7-7-7-5-5-5-5-5-5-5-5-4-4-4-4-4-4-4-4-5-5-5-5-5-5-5-5-|
D|-7-7-7-7-7-7-7-7-5-5-5-5-5-5-5-5-5-5-5-5-5-5-5-5-5-5-5-5-5-5-5-5-|
A|-----------------------------------------------------------------|
D|-----------------------------------------------------------------|
 | . . . . . . . . . . . . . . . . . . . . . . . . . . . . . . . . |
 |                                                                 |
E|-----------------------------------------------------------------|
B|-----------------------------------------------------------------|
G|-7-7-7-7-7-7-7-7-5-5-5-5-5-5-5-5-4-4-4-4-4-4-4-4-5-5-5-5-5-5-5-5-|
D|-7-7-7-7-7-7-7-7-5-5-5-5-5-5-5-5-5-5-5-5-5-5-5-5-5-5-5-5-5-5-5-5-|
A|-----------------------------------------------------------------|
D|-----------------------------------------------------------------|
   . . . . . . . . . . . . . . . . . . . . . . . . . . . . . . . . 

E|-----------------------------------------------------------------|
B|-----------------------------------------------------------------|
G|-7-7-7-7-7-7-7-7-5-5-5-5-5-5-5-5-4-4-4-4-4-4-4-4-5-5-5-5-5-5-5-5-|
D|-7-7-7-7-7-7-7-7-5-5-5-5-5-5-5-5-5-5-5-5-5-5-5-5-5-5-5-5-5-5-5-5-|
A|-----------------------------------------------------------------|
D|-----------------------------------------------------------------|
 | . . . . . . . . . . . . . . . . . . . . . . . . . . . . . . . . |
 |                                                                 |
E|-----------------------------------------------------------------|
B|-----------------------------------------------------------------|
G|-7-7-7-7-7-7-7-7-5-5-5-5-5-5-5-5-4-4-4-4-4-4-4-4-5-5-5-5-5-5-5-5-|
D|-7-7-7-7-7-7-7-7-5-5-5-5-5-5-5-5-5-5-5-5-5-5-5-5-5-5-5-5-5-5-5-5-|
A|-----------------------------------------------------------------|
D|-----------------------------------------------------------------|
   . . . . . . . . . . . . . . . . . . . . . . . . . . . . . . . . 

Pre-Chorus

E|-----------------------------------------------------------------|
B|-----------------------------------------------------10-10-10-10-|
G|-7-7-7-7-7-7-7-7-10-10-10-10-10-10-10-10-13-13-13-13-10-10-10-10-|
D|-7-7-7-7-7-7-7-7-12-12-12-12-12-12-12-12-12-12-12-12-------------|
A|-----------------------------------------------------------------|
D|-----------------------------------------------------------------|
 | . . . . . . . .  .  .  .  .  .  .  .  .  .  .  .  .  .  .  .  . |
 |                                                                 |
E|-----------------------------------------------------------------|
B|-----------------------------------------------------10-10-10-10-|
G|-7-7-7-7-7-7-7-7-10-10-10-10-10-10-10-10-13-13-13-13-10-10-10-10-|
D|-7-7-7-7-7-7-7-7-12-12-12-12-12-12-12-12-12-12-12-12-------------|
A|-----------------------------------------------------------------|
D|-----------------------------------------------------------------|
   . . . . . . . .  .  .  .  .  .  .  .  .  .  .  .  .  .  .  .  . 

E|-----------------|
B|-13-13-13-13-----|
G|-12-12-12-12-5---|
D|-------------5-3-|
A|-------------3-3-|
D|---------------3-|
 |  .  .  .  .     |
 |                 |
E|-----------------|
B|-13-13-13-13-----|
G|-12-12-12-12-5---|
D|-------------5-3-|
A|-------------3-3-|
D|---------------3-|
    .  .  .  .

Chorus 2

E|-x--x-x-x-x-x-x----------------------------------------------|
B|-3--3-3-3-3-3-3----------------------------------------------|
G|-2--2-2-2-2-2-2-5--5-5-5-5-5-5----------------5--5-5-5-5-5-5-|
D|-0--0-0-0-0-0-0-5--5-5-5-5-5-5-5--5-5-5-5-5-5-5--5-5-5-5-5-5-|
A|-0--0-0-0-0-0-0-3--3-3-3-3-3-3-5--5-5-5-5-5-5-3--3-3-3-3-3-3-|
D|-0--0-0-0-0-0-0----------------5--5-5-5-5-5-5----------------|
 |                                                             |
 |                                                             |
E|-x--x-x-x-x-x-x----------------------------------------------|
B|-3--3-3-3-3-3-3----------------------------------------------|
G|-2--2-2-2-2-2-2-5--5-5-5-5-5-5----------------5--5-5-5-5-5-5-|
D|-0--0-0-0-0-0-0-5--5-5-5-5-5-5-5--5-5-5-5-5-5-5--5-5-5-5-5-5-|
A|-0--0-0-0-0-0-0-3--3-3-3-3-3-3-5--5-5-5-5-5-5-3--3-3-3-3-3-3-|
D|-0--0-0-0-0-0-0----------------5--5-5-5-5-5-5----------------|

E|-x--x-x-x-x-x-x--------------x---------------------------|
B|-3--3-3-3-3-3-3--------------x---------------------------|
G|-2--2-2-2-2-2-2-5--5-5-5-5-5-x----------------5--5--5----|
D|-0--0-0-0-0-0-0-5--5-5-5-5-5-x-5--5-5-5-5-5-5-5--5--5--5-|
A|-0--0-0-0-0-0-0-3--3-3-3-3-3-x-5--5-5-5-5-5-5-3--3--3--5-|
D|-0--0-0-0-0-0-0--------------x-5--5-5-5-5-5-5----------5-|
 |                                                         |
 |                                                         |
E|-x--x-x-x-x-x-x--------------x---------------------------|
B|-3--3-3-3-3-3-3--------------x---------------------------|
G|-2--2-2-2-2-2-2-5--5-5-5-5-5-x----------------5--5--5----|
D|-0--0-0-0-0-0-0-5--5-5-5-5-5-x-5--5-5-5-5-5-5-5--5--5--5-|
A|-0--0-0-0-0-0-0-3--3-3-3-3-3-x-5--5-5-5-5-5-5-3--3--3--5-|
D|-0--0-0-0-0-0-0--------------x-5--5-5-5-5-5-5----------5-|

Interlude

E|---------------------------------------------------------------------|
B|---------------------------------------------------------------------|
G|-3-3-3-3-3-3-3-3-5-5-5-5-5-5-5-5-------------------------------------|
D|-3-3-3-3-3-3-3-3-5-5-5-5-5-5-5-5-0-------0----0----0-------0----0----|
A|-1-1-1-1-1-1-1-1-3-3-3-3-3-3-3-3-0-------0----0----0-------0----0----|
D|---------------------------------0-2+-2+-0-2+-0-3~-0-2+-2+-0-2+-0-3~-|
 |                                                                     |
 |                                                                     |
E|---------------------------------------------------------------------|
B|---------------------------------------------------------------------|
G|-3-3-3-3-3-3-3-3-5-5-5-5-5-5-5-5-------------------------------------|
D|-3-3-3-3-3-3-3-3-5-5-5-5-5-5-5-5-0-------0----0----0-------0----0----|
A|-1-1-1-1-1-1-1-1-3-3-3-3-3-3-3-3-0-------0----0----0-------0----0----|
D|---------------------------------0-2+-2+-0-2+-0-3~-0-2+-2+-0-2+-0-3~-|

E|---------------------------------------------------------------------|
B|---------------------------------------------------------------------|
G|-3-3-3-3-3-3-3-3-5-5-5-5-5-5-5-5-------------------------------------|
D|-3-3-3-3-3-3-3-3-5-5-5-5-5-5-5-5-0-------0----0----0-------0----0----|
A|-1-1-1-1-1-1-1-1-3-3-3-3-3-3-3-3-0-------0----0----0-------0----0----|
D|---------------------------------0-2+-2+-0-2+-0-3~-0-2+-2+-0-2+-0-3~-|
 |                                                                     |
 |                                                                     |
E|---------------------------------------------------------------------|
B|---------------------------------------------------------------------|
G|-3-3-3-3-3-3-3-3-5-5-5-5-5-5-5-5-------------------------------------|
D|-3-3-3-3-3-3-3-3-5-5-5-5-5-5-5-5-0-------0----0----0-------0----0----|
A|-1-1-1-1-1-1-1-1-3-3-3-3-3-3-3-3-0-------0----0----0-------0----0----|
D|---------------------------------0-2+-2+-0-2+-0-3~-0-2+-2+-0-2+-0-3~-|

E|-------------------------------------|
B|-------------------------------------|
G|-------------------------------------|
D|-0-------0----0----0-------0----0----|
A|-0-------0----0----0-------0----0----|
D|-0-2+-2+-0-2+-0-3~-0-2+-2+-0-2+-0-3~-|
 |                                     |
 |                                     |
E|-------------------------------------|
B|-------------------------------------|
G|-------------------------------------|
D|-0-------0----0----0-------0----0----|
A|-0-------0----0----0-------0----0----|
D|-0-2+-2+-0-2+-0-3~-0-2+-2+-0-2+-0-3~-|

E|-----------------------------------------------------------------|
B|-----------------------------------------------------------------|
G|-----------------------------------------------------------------|
D|-0-0-7-6-5---5-7-0-0-7-6-5---5-7-0-0-7-6-5---5-7-0-0-7-6-5-------|
A|-0-0-------7-----0-0-------7-----0-0-------7-----0-0-------7-11\-|
D|-0-0-------------0-0-------------0-0-------------0-0---------11\-| 
 |                                                                 |
 |                                                                 |
E|-----x-x-x-x-x-x-----x-x-x-x-x-x-----x-x-x-x-x-x-----x-x-x-x-----|
B|-----x-x-x-x-x-x-----x-x-x-x-x-x-----x-x-x-x-x-x-----x-x-x-x-----|
G|-----x-x-x-x-x-x-----x-x-x-x-x-x-----x-x-x-x-x-x-----x-x-x-x-----|
D|-0-0-x-x-x-x-x-x-0-0-x-x-x-x-x-x-0-0-x-x-x-x-x-x-0-0-x-x-x-x-----|
A|-0-0-x-x-x-x-x-x-0-0-x-x-x-x-x-x-0-0-x-x-x-x-x-x-0-0-x-x-x-x-11\-|
D|-0-0-x-x-x-x-x-x-0-0-x-x-x-x-x-x-0-0-x-x-x-x-x-x-0-0-x-x-x-x-11\-|

Solo (timing doesn't change)

E|-/13-10-8/10------------8/10---------------------------------|
B|-------------------------------------------------------------|
G|---------------7/10-7-7------7/10-7-7\5-5/7------------------|
D|--------------------------------------------/7-5-7-5-7-5-5\3-|
A|-------------------------------------------------------------|
D|-------------------------------------------------------------|
 |                                                             |
 |                                                             |
E|-x--x-x-x-x-x-x----------------------------------------------|
B|-3--3-3-3-3-3-3----------------------------------------------|
G|-2--2-2-2-2-2-2-5--5-5-5-5-5-5----------------5--5-5-5-5-5-5-|
D|-0--0-0-0-0-0-0-5--5-5-5-5-5-5-5--5-5-5-5-5-5-5--5-5-5-5-5-5-|
A|-0--0-0-0-0-0-0-3--3-3-3-3-3-3-5--5-5-5-5-5-5-3--3-3-3-3-3-3-|
D|-0--0-0-0-0-0-0----------------5--5-5-5-5-5-5----------------|

E|------------------------------------------/17-15-15\13------------------|
B|-------/10-8-8\6-------/10-8-8\6/15-15-15--------------1513141515131415-|
G|-7-7-7-----------7-7-7--------------------------------------------------|
D|------------------------------------------------------------------------|
A|------------------------------------------------------------------------|
D|------------------------------------------------------------------------|
 |                                                                        |
 |                                                                        |
E|-x--x-x-x-x-x-x---------------------------------------------------------|
B|-3--3-3-3-3-3-3---------------------------------------------------------|
G|-2--2-2-2-2-2-2--5--5-5-5-5-5-5-------------------------5--5-5-5-5-5-5--|
D|-0--0-0-0-0-0-0--5--5-5-5-5-5-5--5--5-5-5-5-5-5---------5--5-5-5-5-5-5--|
A|-0--0-0-0-0-0-0--3--3-3-3-3-3-3--5--5-5-5-5-5-5---------3--3-3-3-3-3-3--|
D|-0--0-0-0-0-0-0------------------5--5-5-5-5-5-5-------------------------|

Post Solo

E|-x--x-x-x-x-x-x----------------------------------------------|
B|-3--3-3-3-3-3-3----------------------------------------------|
G|-2--2-2-2-2-2-2-5--5-5-5-5-5-5----------------5--5-5-5-5-5-5-|
D|-0--0-0-0-0-0-0-5--5-5-5-5-5-5-5--5-5-5-5-5-5-5--5-5-5-5-5-5-|
A|-0--0-0-0-0-0-0-3--3-3-3-3-3-3-5--5-5-5-5-5-5-3--3-3-3-3-3-3-|
D|-0--0-0-0-0-0-0----------------5--5-5-5-5-5-5----------------|
 |                                                             |
 |                                                             |
E|-x--x-x-x-x-x-x----------------------------------------------|
B|-3--3-3-3-3-3-3----------------------------------------------|
G|-2--2-2-2-2-2-2-5--5-5-5-5-5-5----------------5--5-5-5-5-5-5-|
D|-0--0-0-0-0-0-0-5--5-5-5-5-5-5-5--5-5-5-5-5-5-5--5-5-5-5-5-5-|
A|-0--0-0-0-0-0-0-3--3-3-3-3-3-3-5--5-5-5-5-5-5-3--3-3-3-3-3-3-|
D|-0--0-0-0-0-0-0----------------5--5-5-5-5-5-5----------------|

E|-x--x-x-x-x-x-x--------------x---------------------------|
B|-3--3-3-3-3-3-3--------------x---------------------------|
G|-2--2-2-2-2-2-2-5--5-5-5-5-5-x----------------5--5--5----|
D|-0--0-0-0-0-0-0-5--5-5-5-5-5-x-5--5-5-5-5-5-5-5--5--5--5-|
A|-0--0-0-0-0-0-0-3--3-3-3-3-3-x-5--5-5-5-5-5-5-3--3--3--5-|
D|-0--0-0-0-0-0-0--------------x-5--5-5-5-5-5-5----------5-|
 |                                                         |
 |                                                         |
E|-x--x-x-x-x-x-x--------------x---------------------------|
B|-3--3-3-3-3-3-3--------------x---------------------------|
G|-2--2-2-2-2-2-2-5--5-5-5-5-5-x----------------5--5--5----|
D|-0--0-0-0-0-0-0-5--5-5-5-5-5-x-5--5-5-5-5-5-5-5--5--5--5-|
A|-0--0-0-0-0-0-0-3--3-3-3-3-3-x-5--5-5-5-5-5-5-3--3--3--5-|
D|-0--0-0-0-0-0-0--------------x-5--5-5-5-5-5-5----------5-|

Chorus 3

E|-x--x-x-x-x-x-x----------------------------------------------|
B|-3--3-3-3-3-3-3----------------------------------------------|
G|-2--2-2-2-2-2-2-5--5-5-5-5-5-5----------------5--5-5-5-5-5-5-|
D|-0--0-0-0-0-0-0-5--5-5-5-5-5-5-5--5-5-5-5-5-5-5--5-5-5-5-5-5-|
A|-0--0-0-0-0-0-0-3--3-3-3-3-3-3-5--5-5-5-5-5-5-3--3-3-3-3-3-3-|
D|-0--0-0-0-0-0-0----------------5--5-5-5-5-5-5----------------|
 |                                                             |
 |                                                             |
E|-x--x-x-x-x-x-x----------------------------------------------|
B|-3--3-3-3-3-3-3----------------------------------------------|
G|-2--2-2-2-2-2-2-5--5-5-5-5-5-5----------------5--5-5-5-5-5-5-|
D|-0--0-0-0-0-0-0-5--5-5-5-5-5-5-5--5-5-5-5-5-5-5--5-5-5-5-5-5-|
A|-0--0-0-0-0-0-0-3--3-3-3-3-3-3-5--5-5-5-5-5-5-3--3-3-3-3-3-3-|
D|-0--0-0-0-0-0-0----------------5--5-5-5-5-5-5----------------|

E|-x--x-x-x-x-x-x--------------x---------------------------|
B|-3--3-3-3-3-3-3--------------x---------------------------|
G|-2--2-2-2-2-2-2-5--5-5-5-5-5-x----------------5--5--5----|
D|-0--0-0-0-0-0-0-5--5-5-5-5-5-x-5--5-5-5-5-5-5-5--5--5--5-|
A|-0--0-0-0-0-0-0-3--3-3-3-3-3-x-5--5-5-5-5-5-5-3--3--3--5-|
D|-0--0-0-0-0-0-0--------------x-5--5-5-5-5-5-5----------5-|
 |                                                         |
 |                                                         |
E|-x--x-x-x-x-x-x--------------x---------------------------|
B|-3--3-3-3-3-3-3--------------x---------------------------|
G|-2--2-2-2-2-2-2-5--5-5-5-5-5-x----------------5--5--5----|
D|-0--0-0-0-0-0-0-5--5-5-5-5-5-x-5--5-5-5-5-5-5-5--5--5--5-|
A|-0--0-0-0-0-0-0-3--3-3-3-3-3-x-5--5-5-5-5-5-5-3--3--3--5-|
D|-0--0-0-0-0-0-0--------------x-5--5-5-5-5-5-5----------5-|

Outro

E|-------------------------------------------------------------|
B|-------------------------------------------------------------|
G|-/10-7~----5/7-10-7~----5/7-10~--/10-7~----------------------|
D|---------------------------------------------/7-6-7-6-7-6----|
A|----------------------------------------------------------8--|
D|-------------------------------------------------------------|
 |                                                             |
 |                                                             |
E|-x--x-x-x-x-x-x----------------------------------------------|
B|-3--3-3-3-3-3-3----------------------------------------------|
G|-2--2-2-2-2-2-2-5--5-5-5-5-5-5----------------5--5-5-5-5-5-5-|
D|-0--0-0-0-0-0-0-5--5-5-5-5-5-5-5--5-5-5-5-5-5-5--5-5-5-5-5-5-|
A|-0--0-0-0-0-0-0-3--3-3-3-3-3-3-5--5-5-5-5-5-5-3--3-3-3-3-3-3-|
D|-0--0-0-0-0-0-0----------------5--5-5-5-5-5-5----------------|

E|-------------------------------------------------------------|
B|-----------------------------------------------/10910910910~-|
G|-/10-7~----5/7-10-7~----5/7-10~--/10-7~----------------------|
D|-------------------------------------------------------------|
A|-------------------------------------------------------------|
D|-------------------------------------------------------------|
 |                                                             |
 |                                                             |
E|-x--x-x-x-x-x-x----------------------------------------------|
B|-3--3-3-3-3-3-3----------------------------------------------|
G|-2--2-2-2-2-2-2-5--5-5-5-5-5-5----------------5--5-5-5-5-5-5-|
D|-0--0-0-0-0-0-0-5--5-5-5-5-5-5-5--5-5-5-5-5-5-5--5-5-5-5-5-5-|
A|-0--0-0-0-0-0-0-3--3-3-3-3-3-3-5--5-5-5-5-5-5-3--3-3-3-3-3-3-|
D|-0--0-0-0-0-0-0----------------5--5-5-5-5-5-5----------------|

E|---------------------------------|
B|---------------------------------|
G|---------------------------------|
D|-0-0-------------0-0---------0-0-|
A|-0-0-5-4-3-0-3-5-0-0-5-4-3-0-0-0-|
D|-0-0-------------0-0---------0-0-| 
 |                                 |
 |                                 |
E|---------------------------------|
B|---------------------------------|
G|---------------------------------|
D|-0-0-------------0-0---------0-0-|
A|-0-0-------------0-0---------0-0-|
D|-0-0-------------0-0---------0-0-| 

| .  palm mute
| /  slide up
| \  slide down
| h  hammer-on
| p  pull-off
| ~  vibrato
| +  harmonic
| x  Mute note
===============================================================================
Tap to rate this tab
# A B C D E F G H I J K L M N O P Q R S T U V W X Y Z