Song name
# A B C D E F G H I J K L M N O P Q R S T U V W X Y Z

Theory Of A Deadman - So Happy tab

So Happy
Theory of a Deadman
Scars & Souvenirs (2008)

So Happy: written by Tyler Connolly, Dean Back, Dave Brenner

GTR I - Dropped Db (eb,Bb,Gb,Db,Ab,Db)
GTR II - Dropped Db (eb,Bb,Gb,Db,Ab,Db)

Intro

   GTR I (clean with wah)                             1x         5x
eb|----------------------------------------------------|----------|----------|
Bb|----------------------------13-------13-------13----|----------|----------|
Gb|----14-------14-------14----------12-------12-------|-12-------|----------|
Db|----------14-------14----10----10-------10----------|----12----|----------|
Ab|-12----12-------12-------------------------------10-|-------10-|----------|
Db|----------------------------------------------------|----------|----------|
  |                                                                          |
  |GTR II (Distortion with wah)                                              |
eb|--------------------------------------------------------------------------|
Bb|--------------------------------------------------------------------------|
Gb|--------------------------------------------------------------------------|
Db|--------------------------------------------------------------------------|
Ab|--------------------------------------------------------------------------|
Db|--------------------------------------------------------------------------|

   GTR I (clean with wah)                             1x         4x
eb|----------------------------------------------------|----------|----------|
Bb|----------------------------13-------13-------13----|----------|----------|
Gb|----14-------14-------14----------12-------12-------|-12-------|-12-------|
Db|----------14-------14----10----10-------10----------|----12----|----12----|
Ab|-12----12-------12-------------------------------10-|-------10-|-------10-|
Db|----------------------------------------------------|----------|----------|
  |                                                                          |
  |GTR II (Distortion with wah)                                              |
eb|--------------------------------------------------------------------------|
Bb|--------------------------------------------------------------------------|
Gb|--------------------------------------------------------------------------|
Db|--------------------------------------------------------------------------|
Ab|------------------------------------------------------------------12\\\\\-|
Db|------------------------------------------------------------------12\\\\\-|


Main Riff

   GTR I (Distortion)                2x                                   2x
eb|-----------------------------------|------------------------------------|
Bb|-----------------------------------|------------------------------------|
Gb|-----------------------------------|-7-7-7-9-9-9-7-7-7-9-9-9-x-13-13-13-|
Db|-----------------------------------|-x-x-x-x-x-x-x-x-x-x-x-x-x--x--x--x-|
Ab|-----------------------------------|-5-5-5-7-7-7-5-5-5-7-7-7-x-11-11-11-|
Db|-----------------------------------|------------------------------------|
  |                                   |                                    |
  |GTR II (Distortion)                |                                    |
eb|-----------------------------------|------------------------------------|
Bb|-----------------------------------|------------------------------------|
Gb|-----------------------------------|------------------------------------|
Db|-0-0-0-3-3-3-0-0-0-3-3-3-0-5/6-6-6-|-0-0-0-3-3-3-0-0-0-3-3-3-0-5/6-6-6--|
Ab|-0-0-0-3-3-3-0-0-0-3-3-3-0-5/6-6-6-|-0-0-0-3-3-3-0-0-0-3-3-3-0-5/6-6-6--|
Db|-0-0-0-3-3-3-0-0-0-3-3-3-0-5/6-6-6-|-0-0-0-3-3-3-0-0-0-3-3-3-0-5/6-6-6--|

Verse

   GTR I (Distortion)                3x                                     3x
eb|-----------------------------------|--------------------------------------|
Bb|-----------------------------------|--------------------------------------|
Gb|-----------------------------------|--------------------------13-13-13-13-|
Db|-----------------------------------|--------------------------13-13-13-13-|
Ab|-----------------------------------|--------------------------11-11-11-11-|
Db|-----------------------------------|--------------------------------------|
  |                                   |                                      |
  |GTR II (Distortion)                |                                      |
eb|-----------------------------------|--------------------------------------|
Bb|-----------------------------------|--------------------------------------|
Gb|-----------------------------------|--------------------------------------|
Db|-0-0-0-3-3-3-0-0-0-3-3-3-0-5/6-6-6-|-0-0-0-3-3-3-0-0-0-3-3-3-0-5/6-6-6----|
Ab|-0-0-0-3-3-3-0-0-0-3-3-3-0-5/6-6-6-|-0-0-0-3-3-3-0-0-0-3-3-3-0-5/6-6-6----|
Db|-0-0-0-3-3-3-0-0-0-3-3-3-0-5/6-6-6-|-0-0-0-3-3-3-0-0-0-3-3-3-0-5/6-6-6----|
PM| . . . . . . . . . . . . . . . . .   . . . . . . . . . . . . . . . . .

   GTR I (Distortion)                                                     
eb|-----------------------------------|-----------------------------------|
Bb|-----------------------------------|-----------------------------------|
Gb|-----------------------------------|-----------------------------------|
Db|-----------------------------------|-0-0-0-3-3-3-0-0-0-3-3-3-0-5/6-6-6-|
Ab|-----------------------------------|-0-0-0-3-3-3-0-0-0-3-3-3-0-5/6-6-6-|
Db|-----------------------------------|-0-0-0-3-3-3-0-0-0-3-3-3-0-5/6-6-6-|
  |                                   |                                   |
  |GTR II (Distortion)                |                                   |
eb|-----------------------------------|-----------------------------------|
Bb|-----------------------------------|-----------------------------------|
Gb|-----------------------------------|-----------------------------------|
Db|-0-0-0-3-3-3-0-0-0-3-3-3-0-5/6-6-6-|-0-0-0-3-3-3-0-0-0-3-3-3-0-5/6-6-6-|
Ab|-0-0-0-3-3-3-0-0-0-3-3-3-0-5/6-6-6-|-0-0-0-3-3-3-0-0-0-3-3-3-0-5/6-6-6-|
Db|-0-0-0-3-3-3-0-0-0-3-3-3-0-5/6-6-6-|-0-0-0-3-3-3-0-0-0-3-3-3-0-5/6-6-6-|
PM| . . . . . . . . . . . . . . . . .   . . .                            

Pre-Chorus

   GTR I (Distortion)
eb|------------------------------------------|
Bb|------------------------------------------|
Gb|------------------------------------------|
Db|-5---5-5-5-5-5-6--6-6-6-6-5-5-5-5-5-5--3--|
Ab|-5---5-5-5-5-5-6--6-6-6-6-5-5-5-5-5-5--3--|
Db|-5---5-5-5-5-5-6--6-6-6-6-5-5-5-5-5-5--3--|
  |                                          |
  |GTR II (Distortion)                       |
eb|------------------------------------------|
Bb|------------------------------------------|
Gb|------------------------------------------|
Db|-5---5-5-5-5-5-6--6-6-6-6-5-5-5-5-5-5--3--|
Ab|-5---5-5-5-5-5-6--6-6-6-6-5-5-5-5-5-5--3--|
Db|-5---5-5-5-5-5-6--6-6-6-6-5-5-5-5-5-5--3--|

Chorus

   GTR I (Distortion)
eb|------------------------------------------------x-x--------------------|
Bb|------------------------------------------------3-3--------------------|
Gb|-----------------------5--5-5-5-5-5-5-5---------2-2--------------------|
Db|-0--0-0-0-0-3--3-3-3-3-5--5-5-5-5-5-5-5-0-5-5-0-0-0-0-0-0-0-3--3-3-3-3-|
Ab|-0--0-0-0-0-3--3-3-3-3-3--3-3-3-3-3-3-3-0-5-5-0-----0-0-0-0-3--3-3-3-3-|
Db|-0--0-0-0-0-3--3-3-3-3------------------0-5-5-0-----0-0-0-0-3--3-3-3-3-|
  |                                                                       |
  |GTR II (Distortion)                                                    |
eb|------------------------------------------------x-x--------------------|
Bb|------------------------------------------------3-3--------------------|
Gb|-----------------------5--5-5-5-5-5-5-5---------2-2--------------------|
Db|-0--0-0-0-0-3--3-3-3-3-5--5-5-5-5-5-5-5-0-5-5-0-0-0-0-0-0-0-3--3-3-3-3-|
Ab|-0--0-0-0-0-3--3-3-3-3-3--3-3-3-3-3-3-3-0-5-5-0-----0-0-0-0-3--3-3-3-3-|
Db|-0--0-0-0-0-3--3-3-3-3------------------0-5-5-0-----0-0-0-0-3--3-3-3-3-|

   GTR I (Distortion)
eb|----------------------------x-x-x-x-x-x---------------------------------|
Bb|----------------------------3-3-3-3-3-3---------------------------------|
Gb|-5--5-5-5-5-5-5-5-5---------2-2-2-2-2-2-5-5-5-5-5-5-4-4-4-4-4-4---------|
Db|-5--5-5-5-5-5-5-5-5-0-5-5-0-0-0-0-0-0-0-5-5-5-5-5-5-5-5-5-5-5-5-3-3-3-0-|
Ab|-3--3-3-3-3-3-3-3-3-0-5-5-0-------------3-3-3-3-3-3-2-2-2-2-2-2-3-3-3-0-|
Db|--------------------0-5-5-0-------------------------------------3-3-3-0-|
  |                                                                        |
  |GTR II (Distortion)                                                     |
eb|----------------------------x-x-x-x-x-x---------------------------------|
Bb|----------------------------3-3-3-3-3-3---------------------------------|
Gb|-5--5-5-5-5-5-5-5-5---------2-2-2-2-2-2-5-5-5-5-5-5-4-4-4-4-4-4---------|
Db|-5--5-5-5-5-5-5-5-5-0-5-5-0-0-0-0-0-0-0-5-5-5-5-5-5-5-5-5-5-5-5-3-3-3-0-|
Ab|-3--3-3-3-3-3-3-3-3-0-5-5-0-------------3-3-3-3-3-3-2-2-2-2-2-2-3-3-3-0-|
Db|--------------------0-5-5-0-------------------------------------3-3-3-0-|

   GTR I (Distortion)
eb|---------------------------------------------------------|
Bb|---------------------------------------------------------|
Gb|--------------------------------5--5-5-5-5-5-5-5---------|
Db|-3h5--0--0-0-0-0-0-3--3-3-3-3-3-5--5-5-5-5-5-5-5-0-5-5-5-|
Ab|-3h5--0--0-0-0-0-0-3--3-3-3-3-3-3--3-3-3-3-3-3-3-0-5-5-5-|
Db|-3h5--0--0-0-0-0-0-3--3-3-3-3-3------------------0-5-5-5-|
  |                                                         |
  |GTR II (Distortion)                                      |
eb|---------------------------------------------------------|
Bb|---------------------------------------------------------|
Gb|--------------------------------5--5-5-5-5-5-5-5---------|
Db|-3h5--0--0-0-0-0-0-3--3-3-3-3-3-5--5-5-5-5-5-5-5-0-5-5-5-|
Ab|-3h5--0--0-0-0-0-0-3--3-3-3-3-3-3--3-3-3-3-3-3-3-0-5-5-5-|
Db|-3h5--0--0-0-0-0-0-3--3-3-3-3-3------------------0-5-5-5-|

Post-Chorus

   GTR I (Distortion)                
eb|------------------------------------|
Bb|------------------------------------|
Gb|-7-7-7-9-9-9-7-7-7-9-9-9-x-13-13-13-|
Db|-x-x-x-x-x-x-x-x-x-x-x-x-x--x--x--x-|
Ab|-5-5-5-7-7-7-5-5-5-7-7-7-x-11-11-11-|
Db|------------------------------------|
  |                                    |
  |GTR II (Distortion)                 |
eb|------------------------------------|
Bb|------------------------------------|
Gb|------------------------------------|
Db|-0-0-0-3-3-3-0-0-0-3-3-3-0-5/6-6-6--|
Ab|-0-0-0-3-3-3-0-0-0-3-3-3-0-5/6-6-6--|
Db|-0-0-0-3-3-3-0-0-0-3-3-3-0-5/6-6-6--|

Verse

   GTR I (Distortion)                3x                                     3x
eb|-----------------------------------|--------------------------------------|
Bb|-----------------------------------|--------------------------------------|
Gb|-----------------------------------|--------------------------13-13-13-13-|
Db|-----------------------------------|--------------------------13-13-13-13-|
Ab|-----------------------------------|--------------------------11-11-11-11-|
Db|-----------------------------------|--------------------------------------|
  |                                   |                                      |
  |GTR II (Distortion)                |                                      |
eb|-----------------------------------|--------------------------------------|
Bb|-----------------------------------|--------------------------------------|
Gb|-----------------------------------|--------------------------------------|
Db|-0-0-0-3-3-3-0-0-0-3-3-3-0-5/6-6-6-|-0-0-0-3-3-3-0-0-0-3-3-3-0-5/6-6-6----|
Ab|-0-0-0-3-3-3-0-0-0-3-3-3-0-5/6-6-6-|-0-0-0-3-3-3-0-0-0-3-3-3-0-5/6-6-6----|
Db|-0-0-0-3-3-3-0-0-0-3-3-3-0-5/6-6-6-|-0-0-0-3-3-3-0-0-0-3-3-3-0-5/6-6-6----|
PM| . . . . . . . . . . . . . . . . .   . . . . . . . . . . . . . . . . .

   GTR I (Distortion)                                                     
eb|-----------------------------------|-----------------------------------|
Bb|-----------------------------------|-----------------------------------|
Gb|-----------------------------------|-----------------------------------|
Db|-----------------------------------|-0-0-0-3-3-3-0-0-0-3-3-3-0-5/6-6-6-|
Ab|-----------------------------------|-0-0-0-3-3-3-0-0-0-3-3-3-0-5/6-6-6-|
Db|-----------------------------------|-0-0-0-3-3-3-0-0-0-3-3-3-0-5/6-6-6-|
  |                                   |                                   |
  |GTR II (Distortion)                |                                   |
eb|-----------------------------------|-----------------------------------|
Bb|-----------------------------------|-----------------------------------|
Gb|-----------------------------------|-----------------------------------|
Db|-0-0-0-3-3-3-0-0-0-3-3-3-0-5/6-6-6-|-0-0-0-3-3-3-0-0-0-3-3-3-0-5/6-6-6-|
Ab|-0-0-0-3-3-3-0-0-0-3-3-3-0-5/6-6-6-|-0-0-0-3-3-3-0-0-0-3-3-3-0-5/6-6-6-|
Db|-0-0-0-3-3-3-0-0-0-3-3-3-0-5/6-6-6-|-0-0-0-3-3-3-0-0-0-3-3-3-0-5/6-6-6-|
PM| . . . . . . . . . . . . . . . . .   . . .                            

Pre-Chorus

   GTR I (Distortion)
eb|------------------------------------------|
Bb|------------------------------------------|
Gb|------------------------------------------|
Db|-5---5-5-5-5-5-6--6-6-6-6-5-5-5-5-5-5--3--|
Ab|-5---5-5-5-5-5-6--6-6-6-6-5-5-5-5-5-5--3--|
Db|-5---5-5-5-5-5-6--6-6-6-6-5-5-5-5-5-5--3--|
  |                                          |
  |GTR II (Distortion)                       |
eb|------------------------------------------|
Bb|------------------------------------------|
Gb|------------------------------------------|
Db|-5---5-5-5-5-5-6--6-6-6-6-5-5-5-5-5-5--3--|
Ab|-5---5-5-5-5-5-6--6-6-6-6-5-5-5-5-5-5--3--|
Db|-5---5-5-5-5-5-6--6-6-6-6-5-5-5-5-5-5--3--|

Chorus

   GTR I (Distortion)
eb|------------------------------------------------x-x--------------------|
Bb|------------------------------------------------3-3--------------------|
Gb|-----------------------5--5-5-5-5-5-5-5---------2-2--------------------|
Db|-0--0-0-0-0-3--3-3-3-3-5--5-5-5-5-5-5-5-0-5-5-0-0-0-0-0-0-0-3--3-3-3-3-|
Ab|-0--0-0-0-0-3--3-3-3-3-3--3-3-3-3-3-3-3-0-5-5-0-----0-0-0-0-3--3-3-3-3-|
Db|-0--0-0-0-0-3--3-3-3-3------------------0-5-5-0-----0-0-0-0-3--3-3-3-3-|
  |                                                                       |
  |GTR II (Distortion)                                                    |
eb|------------------------------------------------x-x--------------------|
Bb|------------------------------------------------3-3--------------------|
Gb|-----------------------5--5-5-5-5-5-5-5---------2-2--------------------|
Db|-0--0-0-0-0-3--3-3-3-3-5--5-5-5-5-5-5-5-0-5-5-0-0-0-0-0-0-0-3--3-3-3-3-|
Ab|-0--0-0-0-0-3--3-3-3-3-3--3-3-3-3-3-3-3-0-5-5-0-----0-0-0-0-3--3-3-3-3-|
Db|-0--0-0-0-0-3--3-3-3-3------------------0-5-5-0-----0-0-0-0-3--3-3-3-3-|

   GTR I (Distortion)
eb|----------------------------x-x-x-x-x-x---------------------------------|
Bb|----------------------------3-3-3-3-3-3---------------------------------|
Gb|-5--5-5-5-5-5-5-5-5---------2-2-2-2-2-2-5-5-5-5-5-5-4-4-4-4-4-4---------|
Db|-5--5-5-5-5-5-5-5-5-0-5-5-0-0-0-0-0-0-0-5-5-5-5-5-5-5-5-5-5-5-5-3-3-3-0-|
Ab|-3--3-3-3-3-3-3-3-3-0-5-5-0-------------3-3-3-3-3-3-2-2-2-2-2-2-3-3-3-0-|
Db|--------------------0-5-5-0-------------------------------------3-3-3-0-|
  |                                                                        |
  |GTR II (Distortion)                                                     |
eb|----------------------------x-x-x-x-x-x---------------------------------|
Bb|----------------------------3-3-3-3-3-3---------------------------------|
Gb|-5--5-5-5-5-5-5-5-5---------2-2-2-2-2-2-5-5-5-5-5-5-4-4-4-4-4-4---------|
Db|-5--5-5-5-5-5-5-5-5-0-5-5-0-0-0-0-0-0-0-5-5-5-5-5-5-5-5-5-5-5-5-3-3-3-0-|
Ab|-3--3-3-3-3-3-3-3-3-0-5-5-0-------------3-3-3-3-3-3-2-2-2-2-2-2-3-3-3-0-|
Db|--------------------0-5-5-0-------------------------------------3-3-3-0-|

   GTR I (Distortion)
eb|---------------------------------------------------------|
Bb|---------------------------------------------------------|
Gb|--------------------------------5--5-5-5-5-5-5-5---------|
Db|-3h5--0--0-0-0-0-0-3--3-3-3-3-3-5--5-5-5-5-5-5-5-0-5-5-5-|
Ab|-3h5--0--0-0-0-0-0-3--3-3-3-3-3-3--3-3-3-3-3-3-3-0-5-5-5-|
Db|-3h5--0--0-0-0-0-0-3--3-3-3-3-3------------------0-5-5-5-|
  |                                                         |
  |GTR II (Distortion)                                      |
eb|---------------------------------------------------------|
Bb|---------------------------------------------------------|
Gb|--------------------------------5--5-5-5-5-5-5-5---------|
Db|-3h5--0--0-0-0-0-0-3--3-3-3-3-3-5--5-5-5-5-5-5-5-0-5-5-5-|
Ab|-3h5--0--0-0-0-0-0-3--3-3-3-3-3-3--3-3-3-3-3-3-3-0-5-5-5-|
Db|-3h5--0--0-0-0-0-0-3--3-3-3-3-3------------------0-5-5-5-|

Post-Chorus

   GTR I (Distortion)                
eb|------------------------------------|
Bb|------------------------------------|
Gb|-7-7-7-9-9-9-7-7-7-9-9-9-x-13-13-13-|
Db|-x-x-x-x-x-x-x-x-x-x-x-x-x--x--x--x-|
Ab|-5-5-5-7-7-7-5-5-5-7-7-7-x-11-11-11-|
Db|------------------------------------|
  |                                    |
  |GTR II (Distortion)                 |
eb|------------------------------------|
Bb|------------------------------------|
Gb|------------------------------------|
Db|-0-0-0-3-3-3-0-0-0-3-3-3-0-5/6-6-6--|
Ab|-0-0-0-3-3-3-0-0-0-3-3-3-0-5/6-6-6--|
Db|-0-0-0-3-3-3-0-0-0-3-3-3-0-5/6-6-6--|

Intro

   GTR I (clean with wah)                             1x         5x
eb|----------------------------------------------------|----------|
Bb|----------------------------13-------13-------13----|----------|
Gb|----14-------14-------14----------12-------12-------|-12-------|
Db|----------14-------14----10----10-------10----------|----12----|
Ab|-12----12-------12-------------------------------10-|-------10-|
Db|----------------------------------------------------|----------|
  |                                                               |
  |GTR II (Distortion with wah)                                   |
eb|---------------------------------------------------------------|
Bb|---------------------------------------------------------------|
Gb|---------------------------------------------------------------|
Db|---------------------------------------------------------------|
Ab|---------------------------------------------------------------|
Db|---------------------------------------------------------------|

   GTR I (clean with wah)                             1x         4x (dist.)
eb|----------------------------------------------------|----------|----------|
Bb|----------------------------13-------13-------13----|----------|----------|
Gb|----14-------14-------14----------12-------12-------|-12-------|--7/14\7--|
Db|----------14-------14----10----10-------10----------|----12----|----------|
Ab|-12----12-------12-------------------------------10-|-------10-|----------|
Db|----------------------------------------------------|----------|----------|
  |                                                                          |
  |GTR II (Distortion)                                                       |
eb|--------------------------------------------------------------------------|
Bb|--------------------------------------------------------------------------|
Gb|--------------------------------------------------------------------------|
Db|--------------------------------------------------------------------------|
Ab|------------------------------------------------------------------12\\\\\-|
Db|------------------------------------------------------------------12\\\\\-|

Guitar Solo

   GTR I (Distortion with wah)
eb|-------------------------|--------------------------------------|
Bb|--13fb-13fb-13fb-13fb----|--------------------------------------|
Gb|----------------------12~|12~-10--------------------------------|
Db|-------------------------|-------12-10-12-10----10--------------|
Ab|-------------------------|-------------------12----12-10-12-10-8|
Db|-------------------------|--------------------------------------|
  |                         |                                      |
  |GTR II (Distortion)      |                                      |
eb|-------------------------|--------------------------------------|
Bb|-------------------------|--------------------------------------|
Gb|-------------------------|--------------------------------------|
Db|-000-333-000-333-0-5/666-|-0-0-0-3-3-3-0-0-0-3-3-3--0--5/6-6-6--|
Ab|-000-333-000-333-0-5/666-|-0-0-0-3-3-3-0-0-0-3-3-3--0--5/6-6-6--|
Db|-000-333-000-333-0-5/666-|-0-0-0-3-3-3-0-0-0-3-3-3--0--5/6-6-6--|

   GTR I (Distortion with wah)
eb|--------------------------|--------------------------|
Bb|--------------------------|-15-----17-----18-----20fb|
Gb|--------------------------|-17fb---19fb---20fb-------|
Db|-------------------10--12-|--------------------------|
Ab|-5~--8~--10~--12~---------|--------------------------|
Db|--------------------------|--------------------------|
  |                          |                          |
  |GTR II (Distortion)       |                          |
eb|--------------------------|--------------------------|
Bb|--------------------------|--------------------------|
Gb|--------------------------|--------------------------|
Db|-000-333-000-333-0-5/666--|-000-333-000-333-0-5/666--|
Ab|-000-333-000-333-0-5/666--|-000-333-000-333-0-5/666--|
Db|-000-333-000-333-0-5/666--|-000-333-000-333-0-5/666--|

Chorus

   GTR I (Distortion)
eb|-----------------------------------------------------------------------|
Bb|-20fb(ctd)-------------------------------------------------------------|
Gb|-----------------------------------------------------------------------|
Db|----------------------------------------------------0-0-0-0-3--3-3-3-3-|
Ab|----------------------------------------------------0-0-0-0-3--3-3-3-3-|
Db|----------------------------------------------------0-0-0-0-3--3-3-3-3-|
  |                                                                       |
  |GTR II (Distortion)                                                    |
eb|------------------------------------------------x-x--------------------|
Bb|------------------------------------------------3-3--------------------|
Gb|-----------------------5--5-5-5-5-5-5-5---------2-2--------------------|
Db|-0--0-0-0-0-3--3-3-3-3-5--5-5-5-5-5-5-5-0-5-5-0-0-0-0-0-0-0-3--3-3-3-3-|
Ab|-0--0-0-0-0-3--3-3-3-3-3--3-3-3-3-3-3-3-0-5-5-0-----0-0-0-0-3--3-3-3-3-|
Db|-0--0-0-0-0-3--3-3-3-3------------------0-5-5-0-----0-0-0-0-3--3-3-3-3-|

   GTR I (Distortion)
eb|----------------------------x-x-x-x-x-x---------------------------------|
Bb|----------------------------3-3-3-3-3-3---------------------------------|
Gb|-5--5-5-5-5-5-5-5-5---------2-2-2-2-2-2-5-5-5-5-5-5-4-4-4-4-4-4---------|
Db|-5--5-5-5-5-5-5-5-5-0-5-5-0-0-0-0-0-0-0-5-5-5-5-5-5-5-5-5-5-5-5-3-3-3-0-|
Ab|-3--3-3-3-3-3-3-3-3-0-5-5-0-------------3-3-3-3-3-3-2-2-2-2-2-2-3-3-3-0-|
Db|--------------------0-5-5-0-------------------------------------3-3-3-0-|
  |                                                                        |
  |GTR II (Distortion)                                                     |
eb|----------------------------x-x-x-x-x-x---------------------------------|
Bb|----------------------------3-3-3-3-3-3---------------------------------|
Gb|-5--5-5-5-5-5-5-5-5---------2-2-2-2-2-2-5-5-5-5-5-5-4-4-4-4-4-4---------|
Db|-5--5-5-5-5-5-5-5-5-0-5-5-0-0-0-0-0-0-0-5-5-5-5-5-5-5-5-5-5-5-5-3-3-3-0-|
Ab|-3--3-3-3-3-3-3-3-3-0-5-5-0-------------3-3-3-3-3-3-2-2-2-2-2-2-3-3-3-0-|
Db|--------------------0-5-5-0-------------------------------------3-3-3-0-|

   GTR I (Distortion)
eb|---------------------------------------------------------|
Bb|---------------------------------------------------------|
Gb|--------------------------------5--5-5-5-5-5-5-5---------|
Db|-3h5--0--0-0-0-0-0-3--3-3-3-3-3-5--5-5-5-5-5-5-5-0-5-5-5-|
Ab|-3h5--0--0-0-0-0-0-3--3-3-3-3-3-3--3-3-3-3-3-3-3-0-5-5-5-|
Db|-3h5--0--0-0-0-0-0-3--3-3-3-3-3------------------0-5-5-5-|
  |                                                         |
  |GTR II (Distortion)                                      |
eb|---------------------------------------------------------|
Bb|---------------------------------------------------------|
Gb|--------------------------------5--5-5-5-5-5-5-5---------|
Db|-3h5--0--0-0-0-0-0-3--3-3-3-3-3-5--5-5-5-5-5-5-5-0-5-5-5-|
Ab|-3h5--0--0-0-0-0-0-3--3-3-3-3-3-3--3-3-3-3-3-3-3-0-5-5-5-|
Db|-3h5--0--0-0-0-0-0-3--3-3-3-3-3------------------0-5-5-5-|

Post-Chorus

   GTR I (Distortion)                 2x
eb|------------------------------------|
Bb|------------------------------------|
Gb|-7-7-7-9-9-9-7-7-7-9-9-9-x-13-13-13-|
Db|-x-x-x-x-x-x-x-x-x-x-x-x-x--x--x--x-|
Ab|-5-5-5-7-7-7-5-5-5-7-7-7-x-11-11-11-|
Db|------------------------------------|
  |                                    |
  |GTR II (Distortion)                 |
eb|------------------------------------|
Bb|------------------------------------|
Gb|------------------------------------|
Db|-0-0-0-3-3-3-0-0-0-3-3-3-0-5/6-6-6--|
Ab|-0-0-0-3-3-3-0-0-0-3-3-3-0-5/6-6-6--|
Db|-0-0-0-3-3-3-0-0-0-3-3-3-0-5/6-6-6--|

Intro

   GTR I (clean with wah)                             1x         5x
eb|----------------------------------------------------|----------|----------|
Bb|----------------------------13-------13-------13----|----------|----------|
Gb|----14-------14-------14----------12-------12-------|-12-------|----------|
Db|----------14-------14----10----10-------10----------|----12----|----------|
Ab|-12----12-------12-------------------------------10-|-------10-|----------|
Db|----------------------------------------------------|----------|----------|
  |                                                                          |
  |GTR II (Distortion with wah)                                              |
eb|--------------------------------------------------------------------------|
Bb|--------------------------------------------------------------------------|
Gb|--------------------------------------------------------------------------|
Db|--------------------------------------------------------------------------|
Ab|--------------------------------------------------------------------------|
Db|--------------------------------------------------------------------------|

   GTR I (clean with wah)                             1x         4x         2x
eb|----------------------------------------------------|----------|----------|
Bb|----------------------------13-------13-------13----|----------|----------|
Gb|----14-------14-------14----------12-------12-------|-12-------|-12-------|
Db|----------14-------14----10----10-------10----------|----12----|----12----|
Ab|-12----12-------12-------------------------------10-|-------10-|-------10-|
Db|----------------------------------------------------|----------|----------|
  |                                                                          |
  |GTR II (Distortion with wah)                                              |
eb|--------------------------------------------------------------------------|
Bb|--------------------------------------------------------------------------|
Gb|--------------------------------------------------------------------------|
Db|--------------------------------------------------------------------------|
Ab|--------------------------------------------------------------------------|
Db|--------------------------------------------------------------------------|

| .  palm mute
| fb full bend
| /  slide up
| \  slide down
| h  hammer-on
| p  pull-off
| ~  vibrato
| +  harmonic
| x  Mute note
===============================================================================
Tap to rate this tab
# A B C D E F G H I J K L M N O P Q R S T U V W X Y Z