Song name
# A B C D E F G H I J K L M N O P Q R S T U V W X Y Z

Theory Of A Deadman - Save The Best For Last tab

Save The Best For Last
Theory of A Deadman
Gasoline (2005)

Words & Music by Tyler Connolly, Dean Back, and Dave Brenner

NOTE: I could not figure out some of the slide guitar parts.

GTR I - Drop A Tuning 7-String "Tyler Connolly" (e,B,G,D,A,E,A)
GTR II - Drop A Tuning 7-String "Dave Brenner" (e,B,G,D,A,E,A)

Intro

  GTR I
e|-------------|
B|-------------|
G|-------------|
D|-----8--8----|
A|-----8--8----|
E|-----6--6----|
A|-------------|

Main Riff

  GTR I,II
e|-------------------------------------------------|
B|-------------------------------------------------|
G|-----------------------------------------7--7----|
D|--7-----7--7--7--7--7--7--7--7--7--7--7--7--7-10-|
A|--7-----7--7--7--7--7--7--7--7--7--7--7--5--5-10-|
E|--5-----5--5--5--5--5--5--5--5--5--5--5--------8-|
A|-------------------------------------------------|

  GTR I,II
e|-------------------------------------------------|
B|-------------------------------------------------|
G|-----------------------------------------7--7----|
D|--7-----7--7--7--7--7--7--7--7--7--7--7--7--7-10-|
A|--7-----7--7--7--7--7--7--7--7--7--7--7--5--5-10-|
E|--5-----5--5--5--5--5--5--5--5--5--5--5--------8-|
A|-------------------------------------------------|

  GTR I,II
e|-------------------------------------------------|
B|-------------------------------------------------|
G|-----------------------------------------7--7----|
D|--7-----7--7--7--7--7--7--7--7--7--7--7--7--7-10-|
A|--7-----7--7--7--7--7--7--7--7--7--7--7--5--5-10-|
E|--5-----5--5--5--5--5--5--5--5--5--5--5--------8-|
A|-------------------------------------------------|

  GTR I,II
e|-------------------------------------------------|
B|-------------------------------------------------|
G|-----------------------------------------7--7----|
D|--7-----7--7--7--7--7--7--7--7--7--7--7--7--7-10-|
A|--7-----7--7--7--7--7--7--7--7--7--7--7--5--5-10-|
E|--5-----5--5--5--5--5--5--5--5--5--5--5--------8-|
A|-------------------------------------------------|

Verse

  GTR I,II
e|-------------------------------------------------|
B|-------------------------------------------------|
G|-------------------------------------------------|
D|-------------------------------------------------|
A|-------------------------------------------------|
E|-------------------------------------------------|
A|--0-----0--3--0--5br5--3--0-----0--3--0--5br5--3-|
             .  .                    .  .

  GTR I,II
e|-------------------------------------------------|
B|-------------------------------------------------|
G|-------------------------------------------------|
D|-------------------------------------------(7)(7)|
A|-------------------------------------------------|
E|-------------------------------------------------|
A|--0-----0--3--0--5br5--3--0-----0--3--0----------|
             .  .                    .   

  GTR I,II
e|-------------------------------------------------|
B|-------------------------------------------------|
G|-------------------------------------------------|
D|-------------------------------------------------|
A|-------------------------------------------------|
E|-------------------------------------------------|
A|--0-----0--3--0--5br5--3--0-----0--3--0--5br5--3-|
             .  .                    .  .

  GTR I,II
e|-------------------------------------------------|
B|-------------------------------------------------|
G|-------------------------------------------------|
D|-------------------------------------------------|
A|-------------------------------------------------|
E|-------------------------------------------------|
A|--0-----0--3--0--5br5--3--0-----0--3--0--3--0--3-|
             .  .                        

  GTR I,II
e|-------------------------------------------------|
B|-------------------------------------------------|
G|-------------------------------------------------|
D|-------------------------------------------------|
A|-------------------------------------------------|
E|-------------------------------------------------|
A|--0-----0--3--0--5br5--3--0-----0--3--0--5br5--3-|
             .  .                    .  .

  GTR I,II
e|-------------------------------------------------|
B|-------------------------------------------------|
G|-------------------------------------------------|
D|-------------------------------------------(7)(7)|
A|-------------------------------------------------|
E|-------------------------------------------------|
A|--0-----0--3--0--5br5--3--0-----0--3--0----------|
             .  .                    .   

  GTR I,II
e|-------------------------------------------------|
B|-------------------------------------------------|
G|-------------------------------------------------|
D|-------------------------------------------------|
A|-------------------------------------------------|
E|-------------------------------------------------|
A|--0-----0--3--0--5br5--3--0-----0--3--0--5br5--3-|
             .  .                    .  .

  GTR I,II
e|-------------------------------------------------|
B|-------------------------------------------------|
G|-------------------------------------------------|
D|-------------------------------------------------|
A|-------------------------------------------------|
E|-------------------------------------------------|
A|--0-----0--3--0--5br5--3--0-----0--3--0--3--0--3-|
             .  .                        

Chorus

  GTR I,II
e|-------------------------------------------------|
B|-------------------------------------------------|
G|-------------------------------------------------|
D|-------------------------------------------------|
A|--8-----8--8--8--8--8--8--3-----3--3--3--3--3--3-|
E|--8-----8--8--8--8--8--8--3-----3--3--3--3--3--3-|
A|--8-----8--8--8--8--8--8--3-----3--3--3--3--3--3-|

  GTR I,II
e|-------------------------------------------------|
B|-------------------------------------------------|
G|-------------------------------------------------|
D|--5-----5--5--5--5--5--5-------------------------|
A|--5-----5--5--5--5--5--5--5-----5--5--5--5--7--7-|
E|--3-----3--3--3--3--3--3--5-----5--5--5--5--7--7-|
A|--------------------------5-----5--5--5--5--7--7-|

  GTR I,II
e|-------------------------------------------------|
B|-------------------------------------------------|
G|-------------------------------------------------|
D|-------------------------------------------------|
A|--8-----8--8--8--8--8--8--3-----3--3--3--3--3--3-|
E|--8-----8--8--8--8--8--8--3-----3--3--3--3--3--3-|
A|--8-----8--8--8--8--8--8--3-----3--3--3--3--3--3-|

  GTR I,II
e|-------------------------------------------------|
B|-------------------------------------------------|
G|-------------------------------------------------|
D|--5-----5--5--5--5--5--5-------------------------|
A|--5-----5--5--5--5--5--5--5-----5--5--5--5--7--7-|
E|--3-----3--3--3--3--3--3--5-----5--5--5--5--7--7-|
A|--------------------------5-----5--5--5--5--7--7-|

  GTR I,II
e|-------------------------------------------------|
B|-------------------------------------------------|
G|-------------------------------------------------|
D|-------------------------------------------------|
A|--8-----8--8--8--8--8--8--3-----3--3--3--3--3--3-|
E|--8-----8--8--8--8--8--8--3-----3--3--3--3--3--3-|
A|--8-----8--8--8--8--8--8--3-----3--3--3--3--3--3-|

  GTR I,II
e|-------------------------------------------------|
B|-------------------------------------------------|
G|-------------------------------------------------|
D|--5-----5--5--5--5--5--5-------------------------|
A|--5-----5--5--5--5--5--5--5-----5--5--5--5--7--7-|
E|--3-----3--3--3--3--3--3--5-----5--5--5--5--7--7-|
A|--------------------------5-----5--5--5--5--7--7-|

  GTR I,II
e|-------------------------------------------------|
B|-------------------------------------------------|
G|-------------------------------------------------|
D|-------------------------------------------------|
A|--8-----8--8--8--8--8--8--3-----3--3--3--3--3--3-|
E|--8-----8--8--8--8--8--8--3-----3--3--3--3--3--3-|
A|--8-----8--8--8--8--8--8--3-----3--3--3--3--3--3-|

  GTR I,II
e|-------------------------------------------------|
B|-------------------------------------------------|
G|-------------------------------------------------|
D|-----------------------------------------8--8----|
A|--2-----2--2--2--2--2--2--2--2--2--2--2--8--8----|
E|--2-----2--2--2--2--2--2--2--2--2--2--2--6--6----|
A|--2-----2--2--2--2--2--2--2--2--2--2--2----------|

Post Chorus

  GTR I,II
e|-------------------------------------------------|
B|-------------------------------------------------|
G|-----------------------------------------7--7----|
D|--7-----7--7--7--7--7--7--7--7--7--7--7--7--7-10-|
A|--7-----7--7--7--7--7--7--7--7--7--7--7--5--5-10-|
E|--5-----5--5--5--5--5--5--5--5--5--5--5--------8-|
A|-------------------------------------------------|

  GTR I,II
e|-------------------------------------------------|
B|-------------------------------------------------|
G|-----------------------------------------7--7----|
D|--7-----7--7--7--7--7--7--7--7--7--7--7--7--7-10-|
A|--7-----7--7--7--7--7--7--7--7--7--7--7--5--5-10-|
E|--5-----5--5--5--5--5--5--5--5--5--5--5--------8-|
A|-------------------------------------------------|

Verse
Chorus
Main Riff

Interlude

  GTR I
e|-------------------------------------------------|
B|-------------------------------------------------|
G|-------------------------------------------------|
D|--------7--------7-----------------7--------7----|
A|-----7-----7--------7-----------7-----7----------|
E|--5-----------5--------5-----5-----------5-----5-|
A|-------------------------------------------------|

  GTR I
e|-------------------------------------------------|
B|-------------------------------------------------|
G|-------------------------------------------------|
D|-----------7--------7--------------7--------7----|
A|--------7-----7-----------------9-----9----------|
E|--8--------------8-----8-10-------------10-----8-|
A|-------------------------------------------------|

Play 5 Times

  GTR I
e|-------------------------------------------------|
B|-------------------------------------------------|
G|-------------------------------------------------|
D|--------7--------7-----------------7--------7----|
A|-----7-----7--------7-----------7-----7----------|
E|--5-----------5--------5-----5-----------5-----5-|
A|-------------------------------------------------|

  GTR I
e|-------------------------------------------------|
B|-------------------------------------------------|
G|-------------------------------------------------|
D|-----------7--------7----------------------------|
A|--------7-----7----------------------------------|
E|--8--------------8-----8-10----------------------|
A|-------------------------------------------------|

Bridge

  GTR I,II
e|-------------------------------------------------|
B|-------------------------------------------------|
G|-------------------------------------------------|
D|-------------------------------------------------|
A|-------------------------------------------------|
E|-------------------------------------------------|
A|--0-----0--3--0--5br5--3--0-----0--3--0--5br5--3-|

  GTR I,II
e|-------------------------------------------------|
B|-------------------------------------------------|
G|-------------------------------------------------|
D|-------------------------------------------------|
A|-------------------------------------------------|
E|-------------------------------------------------|
A|--0-----0--3--0--5br5--3--5b---------------------|

Chorus 2

  GTR I,II
e|-------------------------------------------------|
B|-------------------------------------------------|
G|-------------------------------------------------|
D|-------------------------------------------------|
A|--8-----8--8--8--8--8--8--3-----3--3--3--3--3--3-|
E|--8-----8--8--8--8--8--8--3-----3--3--3--3--3--3-|
A|--8-----8--8--8--8--8--8--3-----3--3--3--3--3--3-|

  GTR I,II
e|-------------------------------------------------|
B|-------------------------------------------------|
G|-------------------------------------------------|
D|--5-----5--5--5--5--5--5-------------------------|
A|--5-----5--5--5--5--5--5--5-----5--5--5--5--7--7-|
E|--3-----3--3--3--3--3--3--5-----5--5--5--5--7--7-|
A|--------------------------5-----5--5--5--5--7--7-|

  GTR I,II
e|-------------------------------------------------|
B|-------------------------------------------------|
G|-------------------------------------------------|
D|-------------------------------------------------|
A|--8-----8--8--8--8--8--8--3-----3--3--3--3--3--3-|
E|--8-----8--8--8--8--8--8--3-----3--3--3--3--3--3-|
A|--8-----8--8--8--8--8--8--3-----3--3--3--3--3--3-|

  GTR I,II
e|-------------------------------------------------|
B|-------------------------------------------------|
G|-------------------------------------------------|
D|--5-----5--5--5--5--5--5-------------------------|
A|--5-----5--5--5--5--5--5--5-----5--5--5--5--7--7-|
E|--3-----3--3--3--3--3--3--5-----5--5--5--5--7--7-|
A|--------------------------5-----5--5--5--5--7--7-|

  GTR I,II
e|-------------------------------------------------|
B|-------------------------------------------------|
G|-------------------------------------------------|
D|-------------------------------------------------|
A|--8-----8--8--8--8--8--8--3-----3--3--3--3--3--3-|
E|--8-----8--8--8--8--8--8--3-----3--3--3--3--3--3-|
A|--8-----8--8--8--8--8--8--3-----3--3--3--3--3--3-|

  GTR I,II
e|-------------------------------------------------|
B|-------------------------------------------------|
G|-------------------------------------------------|
D|--5-----5--5--5--5--5--5-------------------------|
A|--5-----5--5--5--5--5--5--5-----5--5--5--5--7--7-|
E|--3-----3--3--3--3--3--3--5-----5--5--5--5--7--7-|
A|--------------------------5-----5--5--5--5--7--7-|

  GTR I,II
e|-------------------------------------------------|
B|-------------------------------------------------|
G|-------------------------------------------------|
D|-------------------------------------------------|
A|--8-----8--8--8--8--8--8--3-----3--3--3--3--3--3-|
E|--8-----8--8--8--8--8--8--3-----3--3--3--3--3--3-|
A|--8-----8--8--8--8--8--8--3-----3--3--3--3--3--3-|

  GTR I,II
e|-------------------------------------------------|
B|-------------------------------------------------|
G|-------------------------------------------------|
D|--5-----5--5--5--5--5--5-------------------------|
A|--5-----5--5--5--5--5--5--5-----5--5--5--5--7--7-|
E|--3-----3--3--3--3--3--3--5-----5--5--5--5--7--7-|
A|--------------------------5-----5--5--5--5--7--7-|

  GTR I,II
e|-------------------------------------------------|
B|-------------------------------------------------|
G|-------------------------------------------------|
D|-------------------------------------------------|
A|--8-----8--8--8--8--8--8--3-----3--3--3--3--3--3-|
E|--8-----8--8--8--8--8--8--3-----3--3--3--3--3--3-|
A|--8-----8--8--8--8--8--8--3-----3--3--3--3--3--3-|

  GTR I,II
e|-------------------------------------------------|
B|-------------------------------------------------|
G|-------------------------------------------------|
D|--5-----5--5--5--5--5--5-------------------------|
A|--5-----5--5--5--5--5--5--5-----5--5--5--5--7--7-|
E|--3-----3--3--3--3--3--3--5-----5--5--5--5--7--7-|
A|--------------------------5-----5--5--5--5--7--7-|

  GTR I,II
e|-------------------------------------------------|
B|-------------------------------------------------|
G|-------------------------------------------------|
D|-------------------------------------------------|
A|--8-----8--8--8--8--8--8--3-----3--3--3--3--3--3-|
E|--8-----8--8--8--8--8--8--3-----3--3--3--3--3--3-|
A|--8-----8--8--8--8--8--8--3-----3--3--3--3--3--3-|

  GTR I,II
e|-------------------------------------------------|
B|-------------------------------------------------|
G|-------------------------------------------------|
D|--5-----5--5--5--5--5--5-------------------------|
A|--5-----5--5--5--5--5--5--5-----5--5--5--5--7--7-|
E|--3-----3--3--3--3--3--3--5-----5--5--5--5--7--7-|
A|--------------------------5-----5--5--5--5--7--7-|

  GTR I,II
e|-------------------------------------------------|
B|-------------------------------------------------|
G|-------------------------------------------------|
D|-------------------------------------------------|
A|--8-----8--8--8--8--8--8--3-----3--3--3--3--3--3-|
E|--8-----8--8--8--8--8--8--3-----3--3--3--3--3--3-|
A|--8-----8--8--8--8--8--8--3-----3--3--3--3--3--3-|

  GTR I,II
e|-------------------------------------------------|
B|-------------------------------------------------|
G|-------------------------------------------------|
D|--5-----5--5--5--5--5--5-------------------------|
A|--5-----5--5--5--5--5--5--5-----5--5--5--5--7--7-|
E|--3-----3--3--3--3--3--3--5-----5--5--5--5--7--7-|
A|--------------------------5-----5--5--5--5--7--7-|

  GTR I,II
e|-------------------------------------------------|
B|-------------------------------------------------|
G|-------------------------------------------------|
D|-------------------------------------------------|
A|--8-----8--8--8--8--8--8--3-----3--3--3--3--3--3-|
E|--8-----8--8--8--8--8--8--3-----3--3--3--3--3--3-|
A|--8-----8--8--8--8--8--8--3-----3--3--3--3--3--3-|

  GTR I,II
e|-------------------------------------------------|
B|-------------------------------------------------|
G|-------------------------------------------------|
D|-----------------------------------------8--8----|
A|--2-----2--2--2--2--2--2--2--2--2--2--2--8--8----|
E|--2-----2--2--2--2--2--2--2--2--2--2--2--6--6----|
A|--2-----2--2--2--2--2--2--2--2--2--2--2----------|

Main Riff


| b  bend
| r  release bend
|trp triplet
|PH. pinch harmonic
|fbk feedback
| .  palm-mute
| /  slide up
| \  slide down
| h  hammer-on
| p  pull-off
| ~  vibrato
|(7) harmonic
| x  Mute note
===============================================================================
Tap to rate this tab
 
# A B C D E F G H I J K L M N O P Q R S T U V W X Y Z