Song name
# A B C D E F G H I J K L M N O P Q R S T U V W X Y Z

Theory Of A Deadman - Crutch tab

Crutch
Theory of A Deadman
Scars & Souvenirs (2008)

Words & Music by Tyler Connolly, Dean Back, Dave Brenner, and Christine Connolly

NOTE: If you listen to the song, you will know how many times to repeat each part.

GTR I - Drop C Tuning "Tyler Connolly" (d,A,F,C,G,C)
GTR II - Drop C Tuning "Dave Brenner" (d,A,F,C,G,C)

Intro

  GTR I,II
d|-------------|
A|-------------|
F|-------------|
C|-------------|
G|-------------|
C|---/12\------|

Main Riff

  GTR I
d|-------------------------------------------------|---|
A|--9--------9x-------9--------9-------------------|---|
F|--7--------7x-------7--------7-------------------|-o-|
C|-------------------------------------------------|-o-|
G|-------------------------------------------------|---|
C|-------------------------------------------------|---|
 |
 |GTR II
d|-------------------------------------------------|---|
A|-------------------------------------------------|---|
F|-------------------------------------------------|-o-|
C|--0--------0x-------0--------0-----0--3----------|-o-|
G|--0--------0x-------0--------0-----0--3----------|---|
C|--0--------0x-------0--------0-----0--3----------|---|

  GTR I,II
d|-------------------------------------------------|
A|-------------------------------------------------|
F|--5--------5--------5-----6--------6--------6----|
C|--5--------5--------5-----6--------6--------6----|
G|--3--------3--------3-----4--------4--------4----|
C|-------------------------------------------------|

Verse

  GTR I,II
d|-------------|-------------|-------------|-------------|
A|-------------|-------------|-------------|-------------|
F|-------------|-------------|-------------|-------------|
C|-------------|-------------|-------------|-------------|
G|-------------|-------------|-------------|-------------|
C|-------------|-------------|-------------|-------------|

  GTR I,II
d|-------------|-------------|-------------|-------------|
A|-------------|-------------|-------------|-------------|
F|-------------|-------------|-------------|-------------|
C|-------------|-------------|-------------|-------------|
G|-------------|-------------|-------------|-------------|
C|-------------|-------------|-------------|-------------|

Verse 2

  GTR I,II
d|-------------------------------------------------|
A|-------------------------------------------------|
F|-------------------------------------------------|
C|-------------------------------------------------|
G|-------------------------------------------------|
C|--0--0--0--0--0--0--0--0/12-12-12-12-12-12-12-12-|

  GTR I,II
d|-------------------------------------------------|---|
A|-------------------------------------------------|---|
F|-------------------------------------------------|-o-|
C|-------------------------------------------------|-o-|
G|-------------------------------------------------|---|
C|--0--0--0--0--0--0--0--0/13-13-13-13-12-12-12-12-|---|

  GTR I,II
d|-------------------------------------------------|
A|-------------------------------------------------|
F|-------------------------------------------------|
C|-------------------------------------------------|
G|-------------------------------------------------|
C|--0--0--0--0--0--0--0--0/12-12-12-12-12-12-12-12-|

  GTR I,II
d|-------------------------------------------------|
A|-------------------------------------------------|
F|-------------------------------------------------|
C|--7--------3--------5-----0----------------------|
G|--7--------3--------5-----0----------------------|
C|--7--------3--------5-----0----------------------|

Pre Chorus

  GTR I
d|-------------------------------------------------|
A|-------------------------------------------------|
F|-------------------------------------------------|
C|--5--------5--------5-----5----------------------|
G|--5--------5--------5-----5----------------------|
C|--5--------5--------5-----5----------------------|
 |
 |GTR II
d|-------------------------------------------------|
A|-------------------------------------------------|
F|-------------------------------------------------|
C|--7-----------------5----------------------------|
G|-----------8--------------5--------7--------8----|
C|-------------------------------------------------|

  GTR I
d|-------------------------------------------------|
A|-------------------------------------------------|
F|-------------------------------------------------|
C|--8--------8--------8-----8----------------------|
G|--8--------8--------8-----8----------------------|
C|--8--------8--------8-----8----------------------|
 |
 |GTR II
d|-------------------------------------------------|
A|-------------------------------------------------|
F|-------------------------------------------------|
C|--7-----------------5----------------------------|
G|-----------8--------------5--------7--------8----|
C|-------------------------------------------------|

  GTR I
d|-------------------------------------------------|
A|-------------------------------------------------|
F|-------------------------------------------------|
C|--3--------3--------3-----3----------------------|
G|--3--------3--------3-----3----------------------|
C|--3--------3--------3-----3----------------------|
 |
 |GTR II
d|-------------------------------------------------|
A|-------------------------------------------------|
F|-------------------------------------------------|
C|--7-----------------5----------------------------|
G|-----------8--------------5--------7--------8----|
C|-------------------------------------------------|

1st Ending

  GTR I
d|-------------------------------------------------|
A|-------------------------------------------------|
F|--5--------5--------5-----5----------------------|
C|--5--------5--------5-----5----------------------|
G|--3--------3--------3-----3----------------------|
C|-------------------------------------------------|
 |
 |GTR II
d|-------------------------------------------------|
A|-------------------------------------------------|
F|-------------------------------------------------|
C|--7-----------------5----------------------------|
G|-----------8--------------5--------7--------8----|
C|-------------------------------------------------|

2nd Ending

  GTR I,II
d|-------------------------------------------------|
A|-------------------------------------------------|
F|--5--------5--------5-----6-----6-----6-----6----|
C|--5--------5--------5-----6-----6-----6-----6----|
G|--3--------3--------3-----4-----4-----4-----4----|
C|-------------------------------------------------|

Chorus

  GTR I,II
d|-------------------------------------------------|
A|-------------------------------------------------|
F|-------------------------------------------------|
C|--0--------0--0-----0-----0--------0--0-----0----|
G|--0--------0--0-----0-----0--------0--0-----0----|
C|--0--------0--0-----0-----0--------0--0-----0----|

  GTR I,II
d|-------------------------------------------------|
A|-------------------------------------------------|
F|-------------------------------------------------|
C|--3--------3--3-----3-----3--------3--3-----3----|
G|--3--------3--3-----3-----3--------3--3-----3----|
C|--3--------3--3-----3-----3--------3--3-----3----|

  GTR I,II
d|-------------------------------------------------|
A|-------------------------------------------------|
F|-------------------------------------------------|
C|--5--------5--5-----5-----5--------5--5-----5----|
G|--5--------5--5-----5-----5--------5--5-----5----|
C|--5--------5--5-----5-----5--------5--5-----5----|

1st Ending

  GTR I,II
d|-------------------------------------------------|
A|-------------------------------------------------|
F|-------------------------------------------------|
C|--3--------3--3-----3-----3-----------5----------|
G|--3--------3--3-----3-----3-----------5----------|
C|--3--------3--3-----3-----3-----------5----------|

2nd Ending

  GTR I,II
d|-------------------------------------------------|
A|-------------------------------------------------|
F|--5--------5--------5-----6--------6--------6----|
C|--5--------5--------5-----6--------6--------6----|
G|--3--------3--------3-----4--------4--------4----|
C|-------------------------------------------------|

Main Riff
Verse 2
Pre Chorus
Chorus

Bridge

  GTR I,II
d|-------------|-------------|-------------|-------------|
A|-------------|-------------|-------------|-------------|
F|-------------|-------------|-------------|-------------|
C|--0----------|-------------|-------------|-------------|
G|--0----------|-------------|-------------|-------------|
C|--0----------|-------------|-------------|-------------|

  GTR II
d|-------------------------------------------------|
A|-------------------------------------------------|
F|-------------------14-14-14-14-------12-12-12-12-|
C|--------------------x--x--x--x--------x--x--x--x-|
G|-------------------12-12-12-12-------10-10-10-10-|
C|--0--0--0--0--0--0--------------0--0-------------|
    .  .  .  .  .  .              .  .

  GTR II
d|-------------------------------------------------|---|
A|-------------------------------------------------|---|
F|-------------------14-14-14-14-------15-15-15-15-|-o-|
C|--------------------x--x--x--x--------x--x--x--x-|-o-|
G|-------------------12-12-12-12-------13-13-13-13-|---|
C|--0--0--0--0--0--0--------------0--0-------------|---|
    .  .  .  .  .  .              .  .

  GTR II
d|-------------------------------------------------|
A|-------------------------------------------------|
F|-------------------14-14-14-14-------12-12-12-12-|
C|--------------------x--x--x--x--------x--x--x--x-|
G|-------------------12-12-12-12-------10-10-10-10-|
C|--0--0--0--0--0--0--------------0--0-------------|
    .  .  .  .  .  .              .  .

  GTR I,II
d|-------------------------------------------------|
A|-------------------------------------------------|
F|-------------------------------------------------|
C|--7--------3--------5-----0----------------------|
G|--7--------3--------5-----0----------------------|
C|--7--------3--------5-----0----------------------|

Pre Chorus

Chorus 2

  GTR I,II
d|-------------------------------------------------|
A|-------------------------------------------------|
F|-------------------------------------------------|
C|--0--------0--0-----0-----0--------0--0-----0----|
G|--0--------0--0-----0-----0--------0--0-----0----|
C|--0--------0--0-----0-----0--------0--0-----0----|

  GTR I,II
d|-------------------------------------------------|
A|-------------------------------------------------|
F|-------------------------------------------------|
C|--3--------3--3-----3-----3--------3--3-----3----|
G|--3--------3--3-----3-----3--------3--3-----3----|
C|--3--------3--3-----3-----3--------3--3-----3----|

  GTR I,II
d|-------------------------------------------------|
A|-------------------------------------------------|
F|-------------------------------------------------|
C|--5--------5--5-----5-----5--------5--5-----5----|
G|--5--------5--5-----5-----5--------5--5-----5----|
C|--5--------5--5-----5-----5--------5--5-----5----|

  GTR I,II
d|-------------------------------------------------|
A|-------------------------------------------------|
F|-------------------------------------------------|
C|--3--------3--------3-----3----------------------|
G|--3--------3--------3-----3----------------------|
C|--3--------3--------3-----3----------------------|

  GTR I
d|-------------------------------------------------|
A|-------------------------------------------------|
F|--7--7--7--7--7--7--7--7--7--7--7--7--9--9--9--9-|
C|--x--x--x--x--x--x--x--x--x--x--x--x--x--x--x--x-|
G|--5--5--5--5--5--5--5--5--5--5--5--5--7--7--7--7-|
C|-------------------------------------------------|
 |
 |GTR II
d|-------------------------------------------------|
A|-------------------------------------------------|
F|-------------------------------------------------|
C|--0--------0--0-----0-----0--------0--0-----0----|
G|--0--------0--0-----0-----0--------0--0-----0----|
C|--0--------0--0-----0-----0--------0--0-----0----|

  GTR I
d|-------------------------------------------------|
A|-------------------------------------------------|
F|-10-10-10-10-10-10-10-10-10-10-10-10-12-12-12-12-|
C|--x--x--x--x--x--x--x--x--x--x--x--x--x--x--x--x-|
G|--8--8--8--8--8--8--8--8--8--8--8--8-10-10-10-10-|
C|-------------------------------------------------|
 |
 |GTR II
d|-------------------------------------------------|
A|-------------------------------------------------|
F|-------------------------------------------------|
C|--3--------3--3-----3-----3--------3--3-----3----|
G|--3--------3--3-----3-----3--------3--3-----3----|
C|--3--------3--3-----3-----3--------3--3-----3----|

  GTR I
d|-------------------------------------------------|
A|-------------------------------------------------|
F|-14-14-14-14-14-14-14-14-14-14-14-14-16-16-16-16-|
C|--x--x--x--x--x--x--x--x--x--x--x--x--x--x--x--x-|
G|-12-12-12-12-12-12-12-12-12-12-12-12-14-14-14-14-|
C|-------------------------------------------------|
 |
 |GTR II
d|-------------------------------------------------|
A|-------------------------------------------------|
F|-------------------------------------------------|
C|--5--------5--5-----5-----5--------5--5-----5----|
G|--5--------5--5-----5-----5--------5--5-----5----|
C|--5--------5--5-----5-----5--------5--5-----5----|

  GTR I
d|-------------------------------------------------|
A|-------------------------------------------------|
F|-17-17-17-17-17-17-17-17-18-18-18-18-18-18-18-18-|
C|--x--x--x--x--x--x--x--x--x--x--x--x--x--x--x--x-|
G|-15-15-15-15-15-15-15-15-16-16-16-16-16-16-16-16-|
C|-------------------------------------------------|
 |
 |GTR II
d|-------------------------------------------------|
A|-------------------------------------------------|
F|--5--------5--------5-----6--------6--------6----|
C|--5--------5--------5-----6--------6--------6----|
G|--3--------3--------3-----4--------4--------4----|
C|-------------------------------------------------|

Outro

  GTR I
d|-------------------------------------------------|---|
A|--9--------9x-------9--------9-------------------|---|
F|--7--------7x-------7--------7-------------------|-o-|
C|-------------------------------------------------|-o-|
G|-------------------------------------------------|---|
C|-------------------------------------------------|---|
 |
 |GTR II
d|-------------------------------------------------|---|
A|-------------------------------------------------|---|
F|-------------------------------------------------|-o-|
C|--0--------0x-------0--------0-----0--3----------|-o-|
G|--0--------0x-------0--------0-----0--3----------|---|
C|--0--------0x-------0--------0-----0--3----------|---|

  GTR I,II
d|-------------------------------------------------|
A|-------------------------------------------------|
F|--5--------5--------5-----6--------6--------6----|
C|--5--------5--------5-----6--------6--------6----|
G|--3--------3--------3-----4--------4--------4----|
C|-------------------------------------------------|


| b  bend
| r  release bend
|trp triplet
|PH. pinch harmonic
|fbk feedback
| .  palm-mute
| /  slide up
| \  slide down
| h  hammer-on
| p  pull-off
| ~  vibrato
|(7) harmonic
| x  Mute note
===============================================================================
Tap to rate this tab
 
# A B C D E F G H I J K L M N O P Q R S T U V W X Y Z