Guitaretab - guitar tabs
Song name
# A B C D E F G H I J K L M N O P Q R S T U V W X Y Z

Therapy - Deep Sleep tab

Deep Sleep
                                   by
                                 
                                 THERAPY?

From the album NURSE!

Transcribed by Jonathan Garvin (jgarvin@its.dundee.ac.uk)



Basically made up of four parts.

Fig 1.

         [Harm.]           Harm. - Harmonic
----------5-5-5--|e
-----4-2--5-5-5--|b
---3------5-5-5--|g
-----------------|d
-----------------|a
-----------------|e


Fig 2.

------------|e
--8-8---8---|b


Fig 3.

 BU               BU - Bend Up
--------|e
--8--8--|b


Fig 4.  (Bridge)
  
  Em
--2-2-2-2-2-----------------|d
--2-2-2-2-2--3-2-0-3-2-0-3--|a
--0-0-0-0-0-----------------|e


Fig 1.   X 12
Fig 2.   X 8
Fig 1.   X 4
Fig 3.   X 8
Fig 1.   X 4
Fig 2.   X 8
Fig 1.   X 4
Fig 3.   X 8
Fig 1.   X 4
Fig 4.   X 8
Fig 1.   X 4
Fig 2.   X 8
Fig 1.   X 4
Fig 3.   X 8
Fig 1.   X 12


That's It!
[ Tab from: http://www.guitaretab.com/t/therapy/19208.html ]
Related for Deep Sleep tab
Advertisement will be closed in 10 seconds