Song name
# A B C D E F G H I J K L M N O P Q R S T U V W X Y Z

Therapy - Human Machanism tab

Subject: Human Mechanism by Therapy?

Human Mechanism by Therapy?

This is on the Teethgrinder single and the Japanese issue of the Nurse album.

------------------------------------------------------------------------------

The two chords that form the verse are:

  C5/G    B5/F#
E|----------------|
B|----------------|
G|5-------4-------|
D|5-------4-------|
A|3-------2-------|
E|3-------2-------|

Chorus:

  E5   D5/A  B5/F#
E|----------------|
B|----------------|
G|-----7-----4----|
D|2-2--7-----4----|
A|2--2-5-5---2----|
E|0----5---5-2----|

End with B5
Tap to rate this tab
# A B C D E F G H I J K L M N O P Q R S T U V W X Y Z