Song name
# A B C D E F G H I J K L M N O P Q R S T U V W X Y Z

Therapy - Stories tab

Help us improve GuitareTab! Take a short survey!
#----------------------------------PLEASE NOTE---------------------------------#
#This file is the author's own work and represents their interpretation of the #
#song. You may only use this file for private study, scholarship, or research. #
#------------------------------------------------------------------------------##
		Therapy? - Stories
		Tab by Steven Garvin 


Intro and Verse Riff:
P.M.     P.M.
------3-------8-               ------6------3--|
------3-------8-               ------6------3--|
----------------  times three  ----------------|
-0-0-----0-0----               ----------------|
----------------               --6-6----5-5----|
----------------               ----------------|

Pre-Verse part(1st and Last verse only):

------------------------------------------|
------------------------------------------|
------------------------------------------|
------------------------------------------|
------------------------------------------|
-0-0-0-0--0-3-0-0-0-0-5-0-0--0-2-3--2-3-5-|

Pre-Chorus:

----------|
----------|
-------8--|
-2-----8--|
-2-----6--|
-0--------|

Bridge:

------------------------------------|
------------------------------------|
------------------------------------|  Times two
---5----8-8-8-7-12---5----8-8-8-7-6-|
-----3--6-6-6-5-10-----3--6-6-6-5-4-|
-3-----------------3----------------|

Solo:

------------------------------------------------------6--------------|
----8---8-----10---8---8------11----6---5---4---5--6--6--6(7)(6)-4-3-|
--7---7--7/8-----7---7---7/10---------0---0---0----------------------|
---------------------------------------------------------------------|
---------------------------------------------------------------------|
---------------------------------------------------------------------|

Outro:

--------------------|
--------------------|
--------------------|
----5-------------5-|
------3--6-5-6-5--5-|
--3---------------3-|
Related for Stories tab