Song name
# A B C D E F G H I J K L M N O P Q R S T U V W X Y Z

Thestart - Melt tab

tabs by beli8 (anabella_8@hotmail.com)


Standard Tuning
*    = Repeat [as needed]
P.M. = Palm mute
/    = Slide


INTRO/VERSE
E|--------------------------------------------------------------------
B|--------------------------------------------------------------------
G|*--------------------------------------------------2-2-2-2-4-4-4-4--
D|*--------------------------2-2-2-2-4-4-4-4-5-5-5-5------------------
A|--2-2-2-2-4-4-4-4-5-5-5-5-------------------------------------------
E|--------------------------------------------------------------------
P.M.(on verses only)________________________________________________


E|--------------------------------------------------------------------|
B|--------------------------------------------------------------------|
G|-------------------------------------------------------------------*|
D|--------------------------2-2-2-2-4-4-4-4-4-4-4-4-/7-7-7-7-7-7-7-7-*|
A|--2-2-2-2-4-4-4-4-5-5-5-5-------------------------------------------|
E|--------------------------------------------------------------------|
P.M._______________________________


2nd Guitar fill at end of 2nd verse
E|-------10--------10-----10---------10--------10-----10-------|
B|-10-10-----10-10-----10------10-10-----10-10-----10----------|
G|-------------------------------------------------------------|
D|-------------------------------------------------------------|
A|-------------------------------------------------------------|
E|-------------------------------------------------------------|




CHORUS
E|------------------------------------
B|------------------------------------
G|*-----------------------------------
D|*-7-7-7-7-7-7-7-7-7-7-7-7-7-7-7-7---
A|--5-5-5-5-5-5-5-5-5-5-5-5-5-5-5-5---
E|------------------------------------


E|--------------------------------------------------|
B|--------------------------------------------------|
G|-------------10-10-10-10-10-10-10-10-10-10-10-10-*|
D|-10-10-10-10-10-10-10-10-10-10-10-10-10-10-10-10-*|
A|-8--8--8--8--8--8--8--8--8--8--8--8--8--8--8--8---|
E|--------------------------------------------------|




BRIDGE
E|---------------------------------------------------------------------|
B|---------------------------------------------------------------------|
G|*-------------------------------------------------------------------*|
D|*-9-9-7-9-9-7-9-9---------------------------------------------------*|
A|--7-7-5-7-7-5-7-7--6-6-6-6-6-8-8-8--5-5-5-5-5-5-5-5-5-5-5-5-5-5-5-5--|
E|-------------------4-4-4-4-4-6-6-6--3-3-3-3-3-3-3-3-3-3-3-3-3-3-3-3--|
P.M.____________________________________________________________________

Last time, ending changes:
E|---------------------------------------------------------------------|
B|---------------------------------------------------------------------|
G|---------------------------------------------------------------------|
D|--9-9-7-9-9-7-9-9----------------------------------------------------|
A|--7-7-5-7-7-5-7-7--6-6-6-6-6-8-8-8--------5-5-5-5-5-5-5-5-5-5-5-5-5--|
E|-------------------4-4-4-4-4-6-6-6--------3-3-3-3-3-3-3-3-3-3-3-3-3--|
P.M.________________________________
Tap to rate this tab
# A B C D E F G H I J K L M N O P Q R S T U V W X Y Z