Song name
# A B C D E F G H I J K L M N O P Q R S T U V W X Y Z

Thin Lizzy - Got To Give It Up tab

Song: Got To Give It Up
Band: THIN LIZZY
Album: Black Rose
Tuning: One Half Step Down
Scribbed by: Reptiliahasnoend@yahoo.com (iggy)

and i hope the tab site isn't all ghetto
and cuts off some of it on the right. if it
does i apologize. if it does, bear with me
and don't let it be a turn off coz this
is a great tab. ;-d

Tab Key:
\ and / = Slide (according to direction) 
^(X) = bend 
h = hammer on
p = pull off
v = Vibrato
~ = let ring
pm = palm mute
* = Repeat Last Technique used
	ex. if a palm mute was last used, seeing this on
the next note means palm mute it.

Not really to sure about the very beginning but it's just chords
and scales so it shouldn't be too hard to crack

Intro Continued:
(0:31)
Guitar One
e------------------------------------------|
B------------------------------------------|
G------------------------------------------|
D------------------------------------------|
A---5---7-7-7-7--7--7--7----5--7-5---------|
E-7---7-------------------7--------5~-7-8~-|

Guitar Two				    X2
e------------------------------------------|
B------------------------------------------|
G------------------------------------------|
D---4---5-5-5-5--5--5--5----4--5-4---------|
A-5---5-------------------5--------3~-5-7~-|
E------------------------------------------|

This Part is also possible to be played with one guitar like 
this:
e------------------------------------------|
B------------------------------------------|
G------------------------------------------|
D---4---5-5-5-5--5--5--5----4--5-4---------|
A-5-5-5-7-7-7-7--7--7--7--5-5--7-5-3~-5-7~-|
E-7---7-------------------7--------5~-7-8~-|X2

Verse:
(0:46)
Both Guitars
e----------
B----------
G-----7----
D-5---7--2-
A-5---5--2- (continued below)
E-3------0-

(0:49)
----------|
----------|
-----5----|
-7---5--2-|
-7---3--2-|
-5------0-|

Chorus:
(1:13)
Guitar One
e------------------------------------------|
B------------------------------------------|
G------------------------------------------|
D------------------------------------------|
A---5---7-7-7-7--7--7--7----5--7-5---------|
E-7---7-------------------7--------5~-7-8~-|

Guitar Two				        X2
e------------------------------------------|
B------------------------------------------|
G------------------------------------------|
D---4---5-5-5-5--5--5--5----4--5-4---------|
A-5---5-------------------5--------3~-5-7~-|
E------------------------------------------|

Verse

Chorus

Solo (The Easy One):
(2:07)
(Guitar One and Two's parts fit together here so time it right)


Guitar One
e-----------
B-----------
G-----7-----
D-5---7--2--
A-5---5--2--
E-3------0--

Guitar Two
e-10p7h10p7h10p7h10p7h10p7h10p7h10p7--
B-------------------------------------
G-------------------------------------
D-------------------------------------
A-------------------------------------
E-------------------------------------

G1
----------|
----------|
-----5----|
-7---5--2-|
-7---3--2-|
-5------0-|

G2
e-10^(12)~~~-10p7------------10-7---------|
B-----------------10-10^(12)------10^(12)-|
G-----------------------------------------|
D-----------------------------------------|
A-----------------------------------------|
E-----------------------------------------|

G1
e-----------
B-----------
G-----7-----
D-5---7--2--
A-5---5--2--
E-3------0--

G2
e--------------------------------------
B------------------10^(12)-10-8--------
G---------*7-*9-*7--------------9-7-9~-
D------*9------------------------------
A-pm10---------------------------------
E--------------------------------------

G1
----------|
----------|
-----5----|
-7---5--2-|
-7---3--2-|
-5------0-|

G2
e----7-------12------12----------15-17^(19)~-17^(19)~-|
B-8-10^(12)--15^(17)-15^(17)--17----------------------|
G-----------------------------------------------------|
D-----------------------------------------------------|
A-----------------------------------------------------|
E-----------------------------------------------------|

G1
e-----------
B-----------
G-----7-----
D-5---7--2--
A-5---5--2--
E-3------0--

G2
e----------------------------------
B---8-10-10p8p7--------------------
G-9-------------9-7----------------
D-------------------9--7-5---5---5-
A--------------------------7--7----
E----------------------------------


G1
----------|
----------|
-----5----|
-7---5--2-|
-7---3--2-|
-5------0-|

G2
e-------------------------------------------------|
B-------------------------------------------10p8~-|
G-------------------------------------7-----------|
D-7p5h7p5h7p5h7p5h7p5h7p5h7p5-7-5-7\9---9p7-------|
A-------------------------------------------------|
E-------------------------------------------------|

G1
e-----------
B-----------
G-----7-----
D-5---7--2--
A-5---5--2--
E-3------0--

G2
e-10^(12)-10^-10^-10^-10^-10^-10^-10^-10^-10v-10v-10v-10-
B--------------------------------------------------------
G--------------------------------------------------------
D--------------------------------------------------------
A--------------------------------------------------------
E--------------------------------------------------------
(This part, play the note all choppy while keeping it bent and then
release the bend.)

G1
----------|
----------|
-----5----|
-7---5--2-|
-7---3--2-|
-5------0-|

G2
e-7-10p7--------------------------12h14h15p12~------------------|
B--------10p8-10p8-10p8--12h14h15--------------The-rest-is------|
G----------------------------------------------too-fast-for-----|
D----------------------------------------------me-figure-it-out-|
A----------------------------------------------yourselves-------|
E---------------------------------------------------------------|

Chorus

Verse

Bridge
(Same as a chorus except this is in there somewhere from guitar one)
Guitar One
e--------------------------------------------|
B--------------------------------------------|
G--------------------------------------------|
D--------------------------------------------|
A---5---7-7-7-9-10/9-9/7-7/5-5/3-3/2-0~------|
E-7---7---------------------------------7-8~-|

Outro
Guitar two can play the chords at the beginning for the chorus
so that guitar one can play this:
Solo (The hard one):
Guitar One
e------------------------------------|
B-----------7-8-7--------------------|
G-9V~-5h7h9-------9-7-5~-7-9---------|
D----------------------------7--5--4-|
A------------------------------------|
E------------------------------------|

e----------------------------10-10----10-12-14-15v-----------|
B--------------8-8---12-12-8-------12------------------------|
G-9v~-7h9-9--------7------------------Again-too-fast-for-me--|
D-----------9-------------------------and-besides-the-song---|
A-------------------------------------is-basically-over-now--|
E------------------------------------------------------------|

thats the best i could do on a sunday afternoon. I'll try and get into
a guitar pro file but that'll be tough so don't expect it soon (those
time signatures kill me) ;-d
Tap to rate this tab
# A B C D E F G H I J K L M N O P Q R S T U V W X Y Z