Guitaretab - guitar tabs
Song name
# A B C D E F G H I J K L M N O P Q R S T U V W X Y Z

Thin Lizzy - Whiskey In The Jar tab

Band:Thin Lizzy
Song: Whiskey in the Jar
Album:Vagabonds

Intro
|-8---8--8\7--5--7----7--7\5----------------------|
|----------------------------8/10---8\5-----------|
|----------------------------------------7\5------|
|---------------------------------------------7-5-|
|-------------------------------------------------|
|-------------------------------------------------|

Intro cont
|---------------------------------------------------------|
|---------------5/8\5-------------------------------------|
|-----------4/7-------7-9--7--6--5------------------------|
|-5--7\5/7--------------------------9-7-6-5---------------|
|-------------------------------------------7-6-5---------|
|-------------------------------------------------8-7-6\5-|

Inturlude 1                         end of inturlude
|----------------------------|    |-------------------------|
|---------7-8--------------8-|    |-------------3-----------|
|-7-7-7/9------9--11--7--9---|    |-12/-0-0-2-4---0-2/4-0---|
|----------------------------|    |-------------------------|
|----------------------------|    |-------------------------|
|----------------------------|x3  |-------------------------| x1

Verses...
  G                                Em
|-----------------------------------------------------------------|
|-3---3---3---5---3---0---0---0-3---5---5---5---7\5----0---0----0-|
|--0---0---0---0---0---0---0---------0---0---0------0--0-0-0--0---|
|-----------------------------------------------------------------|
|-----------------------------------------------------------------|
|-----------------------------------------------------------------|

  C                                 G
|-----------------------------------------------------------------|
|-5--5--5---7---8---8-8-7---5--3--3---5---8---8-5-3---3-3-3-3-3-3-|
|--0--0--0---0--0-0-0-0-0-0-0-------0--0--0-0-0---0-0-0-0-0-0-0-0-|
|-----------------------------------------------------------------|
|-----------------------------------------------------------------|
|-----------------------------------------------------------------|

  G                                 Em
|----------------------------------------------------------------------|
|-3---3---3--5--3---3---0---0---0-3--5---5---5---7---5---0-0-0-0-0-0-3-|
|-0-0-0-0-0--0--0-0-0-0-0-0-0-0-0----0-0-0-0-0-0-0-0-0-0-0-0-0-0-0-0---|
|----------------------------------------------------------------------|
|----------------------------------------------------------------------|
|----------------------------------------------------------------------|

  C                                 G
|------------------------------------------------------------------|
|-5-5-5--7---8---8-8-7--5-3-3-----5--8--8--7--5--3--3---3---3----3-|
|-0-0-0--0-0-0-0-0-0-0------0--0--0--0--0--0-----0---0---0---0---0-|
|------------------------------------------------------------------|
|------------------------------------------------------------------|
|------------------------------------------------------------------|

Chorus
 D                      C                         
|----------------------------------------------------------------|
|---------------------------5-5--5--5----8---8---8---8---8---8---|
|-7--2-2-2-2-2-4-4-4----5-5---5--5--5--9---9---9---9---9--9---9-|
|-0--0-0-0-0-0-0-0-0--0------------------------------------------|
|----------------------------------------------------------------|
|----------------------------------------------------------------|

 C                      G
|--------------------------------------------------|
|-8\7-10--8-13-13-13--3---0---0----------0-0-0-0-0-|
|-----------14-14-14---0---0---0--2-2--0-0-0-0-0-0-|
|--------------------------------------------------|
|--------------------------------------------------|
|--------------------------------------------------|


Interlude 2
 Em                     G
|-------------------------------------------------------------|
|-------------------------------------------------------------|
|-0--0--0-0-0--0--0-0-0-0-0-0--0-0-0-0-0-0-0-0--0-0-0-0-0-0-0-|
|-0--0--0------0--0-----0-0-0--0-----0-0-----0--0-------------|
|-------------------------------------------------------------|
|-------------------------------------------------------------|
[ Tab from: http://www.guitaretab.com/t/thin-lizzy/19321.html ]
 Em                      G
|--------------------------------------------------------------------|
|--------------------------------------------------------------------|
|--------------------------------------------------------------------|
|0--0---0-0-0-0---0-0-0-0-0-0-0-0-0-0---0-0-0-0-0-0-0-0-0-0-0-0-0-0-0|
|0-0--0-0-----0-0-0-0-0-----0---0-0-0-0-0-0-----0-0-0-0-0-0---0-0-0-0|
|--------------------------------------------------------------------|

 Em
|--------------------------------------------7--8-|
|--------------------------------------------x----|
|-0---0--0--0--0--0-0-0--0---0-0-0-0--0--0-0-0--0-|
|-0---0--0--0--0----0----0---0-0---0--0--0---0----|
|-------------------------------------------------|
|-------------------------------------------------|

Pre Solo
|----------------------------|
|---------7-8--------------8-|    
|-7-7-7/9------9--11--7--9---|    
|----------------------------|    
|----------------------------|    
|----------------------------|

Solo
e|-7-8-10-8-7h8p7---7-------------7-8-10--7-10-10/12-12-10-12-12/15-12-10----|
B|---------------10---10-8-7-8-10--------------------------------------------|
G|---------------------------------------------------------------------------|
D|---------------------------------------------------------------------------|
A|---------------------------------------------------------------------------|
E|---------------------------------------------------------------------------|
                              1_______________________________*return to start 
e|-12p10h12-7-10-8-7----------|-8p7------------------------------------------|
B|-------------------10-8-----|-----10-8-------------------------------------|
G|------------------------10-9|----------10-9-7-5-4b5-4b5-4b5-4b5-4----------|
D|----------------------------|----------------------------------------------|
A|----------------------------|----------------------------------------------|
E|----------------------------|----------------------------------------------|
  2____________________________________________________________ 
e||-----------------------------------------------------------------35b-5b--|
B||----------13----15----17----12-12-12h13-12-10-8/10-10/12--3-3--5----------|
G||9-10-12-10---12----12----12-------------------------------0-0-------------|
D||----------------------------12-12-12h14-12-10-9/10-10/12------------------|
A||--------------------------------------------------------------------------|
E||--------------------------------------------------------------------------|

e|5-3------3h5p3-------3h5p3-------------------------------------------/12---|
B|----5-3--------5-3-5-------5-3-3-2-1--3-1/5--34/65b6h7h8-6-8/10--8------|
G|---------------------------------------------------------------------------|
D|---------------------------------------------------------------------------|
A|---------------------------------------------------------------------------|
E|---------------------------------------------------------------------------|

e|-----8------3--3---------------------------15-17b---15----------15h17p15~~~|
B|-88h10-8-3h5--5-------13-15b-15b---15-17--------------17-15h17------------|
G|------------------5/14-----------------------------------------------------|
D|---------------------------------------------------------------------------|
A|---------------------------------------------------------------------------|
E|---------------------------------------------------------------------------|

outro
|-------------------------------------------------|
|-------------------------------------------------|
|-0--0--0--0--0--0--0--0--0--0--0--0--0--0--0--0--|
|---0-0--0--0--0--0--0--0--0--0--0--0--0--0--0--0-|
|-------------------------------------------------|
|-------------------------------------------------|

 
|-----------------------3-|
|-----------3-------------|
|-0-0-0-2-4---0-2-0-2/4---|
|-------------------------|
|-------------------------| (repeat until fade out)
|-------------------------|


Song Order:

Intro

Interlude 1

Verse

Chorus

Interlude 2 + Interlude 1
(On the third bar of interlude 1 play)
|----------------------------|    
|---------7---7---7h8--------|    
|-7-7-7/9---9---9------------| 
|----------------------------|   
|----------------------------|

Verse

Chorus

Pre Solo

Solo

Interlude 1

Verse

Chorus

Interlude 1

Verse

Chorus

Interlude 1 + Outro (repeat until fade)
Related for Whiskey In The Jar tab