Song name
# A B C D E F G H I J K L M N O P Q R S T U V W X Y Z

Thin Lizzy - Whiskey In The Jar tab

hey

heres my version of whiskey in  jar

i think its pretty good so give it a go and let us kno what the think
all comments are welcome and plz rate :)

standard tuning

intro

|--8-88-7-5-7-77-5-------------------------------------------|
|------------------8-8b10-8-5---------------------5h8p5------|
|-----------------------------7-5-------------4-7-------7/9--|
|---------------------------------7-6-5-7p5-7----------------|
|------------------------------------------------------------|
|------------------------------------------------------------|

|-----------------------------|
|-----------------------------|
|--7-6-5----------------------|
|--------7-6-5----------------|
|--------------7-6-5----------|
|--------------------8-7-6-5--|

chords G F Em F G x2

|----------------------------------------|
|-------7-8---7-----8--------------------|
|--77-9-----9---7-9----------------------|x3
|----------------------------------------|
|----------------------------------------|
|----------------------------------------|
                         or
|-------------------------|----------------------------|
|---------3---------------|----------------------------|
|--00-2-4---0-2-0-4b5r4-0-|-----------7----------------|
|-------------------------|-------7h9---5-7-5-7b8r7-5--|
|-------------------------|--1010----------------------|
|-------------------------|----------------------------|
how ever u wanna play it

verse
   G                       Em
As I was a goin' over the cork in Kerry mountains
   C                           G
I saw captain Farrell and his money he was counting
   G                            Em
I first produced my pistol and then produced my rapier
        C                          G
I Said "Stand and deliver" or the devil he may take ya

Chorus:
D
Mush-a ring dum-a do dum-a da
C
Whack for my daddy-o. Whack for my daddy-o
         G
There's whiskey in the jar

|------------------------|---------------------------|
|-------7-8---7-----8-x2-|-----8-10b12r10b12r10p8----|
|--77-9-----9---7-9------|-7-9-----------------------|
|------------------------|---------------------------|
|------------------------|---------------------------|
|------------------------|---------------------------|
                         or
|-------------------------|----------------------------|
|---------3---------------|----------------------------|
|--00-2-4---0-2-0-4b5r4-0-|-----------7----------------|
|-------------------------|-------7h9---5-7-5-7b8r7-5--|
|-------------------------|--1010----------------------|
|-------------------------|----------------------------|

verse
  G                            Em
I took all of his money and it was a pretty penny
C                              G                   
I took all of his money and i brought it home to molly
G                          Em
She swore that she love me never would she leave me
        C                             G
But the devil take the women for you know she tricked me easy

Chorus:
D
Mush-a ring dum-a do dum-a da
C
Whack for my daddy-o. Whack for my daddy-o
         G
There's whiskey in the jar

|----------------------------------------|
|-------7-8---7-----8--------------------|
|--77-9-----9---7-9----------------------|
|----------------------------------------|
|----------------------------------------|
|----------------------------------------|

solo not 100% but to a backing track it sounds
pretty good :)

ive broke it in to bits so its easier to learn

|--7-8-10-8-7h8p7----7-------------7-8-10--|
|-----------------10---10-8-7-8-10---------|
|------------------------------------------|
|------------------------------------------|
|------------------------------------------|
|------------------------------------------|

|--7-10/12-12-10-12-14b15-12-10-12-10-12-|
|----------------------------------------|
|----------------------------------------|
|----------------------------------------|
|----------------------------------------|
|----------------------------------------|

|--7-10-8-7-5-------8p7p5---------------------|
|-------------8-6-5-------8-6-5---------------|
|-------------------------------7-5-4b5r4b5r--|
|---------------------------------------------|
|---------------------------------------------|
|---------------------------------------------|
the bend at the end lasts longer than that
just listen to song

|--7-8-10-8-7h8p7----7-------------7-8-10--|
|-----------------10---10-8-7-8-10---------|
|------------------------------------------|
|------------------------------------------|
|------------------------------------------|
|------------------------------------------|

|--7-10/12-12-10-12-14b15-12-10-12-10-12-|
|----------------------------------------|
|----------------------------------------|
|----------------------------------------|
|----------------------------------------|
|----------------------------------------|

|--7-10-8-7-5-------------------8---10---12--|
|-------------8-6-5-5h6h8p6p5-8---8----8-----|
|--------------------------------------------|
|--------------------------------------------|
|--------------------------------------------|
|--------------------------------------------|

this is weird to play and abit quick
|------------------------------------|
|--8-8-8-10-8-10/12------------------|
|--7-9-7-x--x-x-/x--7----------------|
|--------10-8-10/12-5----------------|
|------------------------------------|
|------------------------------------|

|---------------------------------|
|-----8-10-10b12-10b12-10-8-------|
|--/9-----------------------------|
|---------------------------------|
|---------------------------------|
|---------------------------------|

|------------------------------|
|------8h10p8-------8h10p8-----|
|--7h9--------9-7h9--------9---|
|------------------------------|
|------------------------------|
|------------------------------|

|-----------------------------------10/12-----|
|--------------5---6-5-6/8-6-8/10-8-------8---|
|--7-7-6-5-7-5---7----------------------------|
|---------------------------------------------|
|---------------------------------------------|
|---------------------------------------------|

|--8------3---------------------------|
|--8h10p8-3h5p3------13-15b17-15b17---|
|---------------5/14------------------|
|-------------------------------------|
|-------------------------------------|
|-------------------------------------|

|--------15-17b19r17-------15h17p15------|
|--15-17-------------15h17---------------|
|----------------------------------------|
|----------------------------------------|
|----------------------------------------|
|----------------------------------------|
end of solo

|----------------------------------------|
|-------7-8---7-----8--------------------|
|--77-9-----9---7-9----------------------|x3
|----------------------------------------|
|----------------------------------------|
|----------------------------------------|
                         or
|-------------------------|----------------------------|
|---------3---------------|----------------------------|
|--00-2-4---0-2-0-4b5r4-0-|-----------7----------------|
|-------------------------|-------7h9---5-7-5-7b8r7-5--|
|-------------------------|--1010----------------------|
|-------------------------|----------------------------|

verse

G                        Em
being drunk and weary I went to my chamber 
C                             G
taking my money with me and i never knew the danger
G                         Em
For about six maybe seven in walks captain farrell
C                                      G
I jumped up, fired off my pistols and shot him with both barrels

Chorus:
D
Mush-a ring dum-a do dum-a da
C
Whack for my daddy-o. Whack for my daddy-o
         G
There's whiskey in the jar


verse
|-----------------------------------------------------------------------|
|--3333335533000003/555555775500003/55555577888877553333/8877/33000000--|
|-----------------------------------------------------------------------|
|-----------------------------------------------------------------------|
|-----------------------------------------------------------------------|
|-----------------------------------------------------------------------|
its somethin like that dont kno if ive put the right amount of notes in
but u get the idea 

the same chords as other veres are played underneth 

Chorus:
D
Mush-a ring dum-a do dum-a da
C
Whack for my daddy-o. Whack for my daddy-o
         G
There's whiskey in the jar

|----------------------------------------|
|-------7-8---7-----8--------------------|
|--77-9-----9---7-9----------------------|x3
|----------------------------------------|
|----------------------------------------|
|----------------------------------------|
                         or
|-------------------------|----------------------------|
|---------3---------------|----------------------------|
|--00-2-4---0-2-0-4b5r4-0-|-----------7----------------|
|-------------------------|-------7h9---5-7-5-7b8r7-5--|
|-------------------------|--1010----------------------|
|-------------------------|----------------------------|

ending is somethin like this not 100%
|--------------------------3----------|
|---------3---------------------------|
|--00-2h4---0-2----0h2h4-0------------|
|-------------------------------------|
|-------------------------------------|
|-------------------------------------|

hope that helps let us kno what u think cheers




Tap to rate this tab
 
# A B C D E F G H I J K L M N O P Q R S T U V W X Y Z