Song name
# A B C D E F G H I J K L M N O P Q R S T U V W X Y Z

Thin Lizzy - She Knows tab

Great, great song by Thin Lizzy - She Knows off Night Life album

Guitar1(Acoustic)
E-----------------------------------------|
B-----------------------------------------|
G-11-11---9-9--7-7---6-6------------------|
D-12-12--1111--9-9---7-7-------7-9-7------|
A--------------------------7-9-------9-7--|
E-----------------------------------------|

Guitar2(Distortion)
E----------------------------|
B-7--5-----------------------|
G-7--6-----------------------|
D-7--7------------7-9-7------|
A-5--7--------7-9------9-7---|
E----------------------------|

Verses (played 4 times)
Guitar1(Acoustic)
E--------------------------------------------|
B--------------------------------------------|
G-11-11---9-9---7-7----6-6-------------------|
D-12-12--11-11--9-9----7-7-------7-9-7-------|
A----------------------------7-9-------9-7---|
E--------------------------------------------|

Guitar2(Distortion)
  D  A
E----------------------------|
B-7--5-----------------------|
G-7--6-----------------------|
D-7--7------------7-9-7------|
A-5--7--------7-9------9-7---|
E----------------------------|

Guitar1 (acoustic chords or can be fairly clean electric):
D(10x) C#m(9x) Bm(7x) A(5x)

Guitar2(Fairly Clean sound for lead part)
E--------------------------------------|
B--------------------------------------|
G-9b11-9---7h9p7-7/6-6-----------------|
D----------------------------7-9-7-----|
A---------------------7--7-9-----9-7---|
E--------------------------------------|

E-----10-------------------------------------------|
B-------10-----------------------------------------|
G-9b11----b11-9--9p7-9p7-x7p6-7p6------------------|
D--------------------------------7------7-9-7------|
A------------------------------------7-9-----9-7---|
E--------------------------------------------------|

E---------10-9-12-/14-12-10-9--------------------------|
B-10h12p10-------------------10---------10-12-10-------|
G------------------------------9---9-11---------11-9---|
D------------------------------------------------------|
A------------------------------------------------------|
E------------------------------------------------------|

Guitar1 plays E chord here for last part (listen for it at 1.08-1.12)
While Guitar2 continues with this below.

E--------------------------------------12-----12-----17p12--16p12--17p12--16p12---/12---|
B------------------------------------12--12h14--12--------12-----12-----12-----12-/12---|
G-9b11-9-------------9-11p9---9-11/13---------------------------------------------------|
D---------------9-11--------11----------------------------------------------------------|
A----------9/11-------------------------------------------------------------------------|
E---------------------------------------------------------------------------------------|

Back to
Intro (4x)

Verse

Bridge

Intro (4x)

Bridge (4x)

Guitar1
(acoustic chords or can be fairly clean electric): F(8x) Em(7x) Dm(5x) C(3x)

Guitar2
E----------------------------------------------------|
B----------------------------------------------------|
G-12b14-12--10h12p10-10/9-9--------------------------|
D------------------------------------10-12-10--------|
A---------------------------10--10-12--------12-10---|
E----------------------------------------------------|

E-----------------------------------------------------------------------------------|
B------13-----------------------------------------------13-13-13-13-13--------------|
G-12b14--b14-12---12p10-12p10-x10p9-10p9--10p9-10p9---------------------------------|
D---------------------------------------12---12----10-----------------10-10-10-10---|
A-----------------------------------------------------------------------------------|
E-----------------------------------------------------------------------------------|

E-------------------------------------------8x-7-8-10-8-7-----------------|
B------------------------------------------8x------------8----------------|
G---10p9--9---12-12b14-12-10--12b14-12----7x--------------7/5-4-4h5p4-----|
D-10----10--10---------------------------rake-------------------------5---|
A-------------------------------------------------------------------------|
E-------------------------------------------------------------------------|
  G
E--------------------10--------------------|
B-------------8-10b12---r10p8---10-8--/8---|
G----------7h9----------------9-------/7---|
D----5-7/9---------------------------------|
A-5-7--------------------------------------|
E------------------------------------------|


TWIN GUITARS (harmony part) (at 2:51) Be very aware of the rhythm and phrasing of the 
very important if you are to get those melodies across.

Guitar1(Distortion)
E-/12--12-9------------9-9-9h12p9--5/9-9----------------------------------------|
B----------10--------10---------------------------------------------------------|
G------------9-999-11-------------------11-9-11-9-6-9---------------------------|
D----------------------------------------------------11-9-11-9-7-7---7--7-------|
A----------------------------------------------------------------------9-7------|
E-------------------------------------------------------------------------------|

Guitar2(Distortion)
E-/9---9-------------5-5-5h9p5--5/9-9--------------------------------------|
B-------10-7--------7-----------------10-7-10-10-7-10----------------------|
G------------9-666-7---------------------------------9p7-9p7-6-7-7h9p7-6---|
D--------------------------------------------------------------------------|
A--------------------------------------------------------------------------|
E--------------------------------------------------------------------------|


Solo 1
E-------------------------------------------------------12b14-12b14-12-10----------------------|
B--------------------------------------7--10p7-10p7-7--------------------12b14--10--12-10------|
G-----------------------6--6-6h9p6-6--9-9-----9-----------------------------------11------12b14|
D------------7--7-9-7-9--9--------9---------------------------------------------(-----2x-------|
A-5/9--9-7-9--9--------------------------------------------------------------------------------|
E----------------------------------------------------------------------------------------------|


Solo 2
E------17------------------------------------------------------12----------------------------10p9|
B-17b19--b19-17-17p15-17p15-15-14---------10-12p10-12p10--12b14--r14--10--10--12-10-12-10--10----|
G------------------------------------9-11------------------------------11---------------11-------|
D--------------------------------14--------------------------------------------------------------|
A------------------------------------------------------------------------------------------------|
E------------------------------------------------------------------------------------------------|

E---9---12-12-12-12----17-17-17-17-17-----------------------------------------------------------|
B-10-10---------------------------------------------------------------------------------17b19-17|
G--------------------14--------------14-14-14-14----------------14-16-16-16b18r16p14-14---------|
D----------------------------------------------------------14-16--------------------------------|
A-----------------------------------------------------14/16-------------------------------------|
E------------------------------------------------17-14------------------------------------------|

(E chord played here once again as the same as the bridge part by Guitar1 clean)

E--------------------------------12-----12-----17p12--16p12--17p12--16p12---/12---|
B------------------------------12--12h14--12--------12-----12-----12-----12-/12---|
G------------9-11p9---9-11/13-----------------------------------------------------|
D-------9-11--------11------------------------------------------------------------|
A--9/11---------------------------------------------------------------------------|
E---------------------------------------------------------------------------------|

Verse

Intro

Bridge

Guitar2 lick at the end over bridge chords.
E-------------------------------------13-12-10--------------------|
B--------------------13-12-10---10-12---------13------------------|
G-12b14-12-10-9--------------12------------------12b14-12-12p10---|
D-----------------------------------------------------------------|
A-----------------------------------------------------------------|
E-----------------------------------------------------------------|


Twin Guitars for the harmonies at the end

Guitar1                              C
E-12-10h12p10------------------------8----|
B------------10----------------------8----|
G--------------10-9-12-10-9-7--------9----|
D----------------------------10------10---|
A------------------------------------10---|
E------------------------------------8----|

Guitar2
E-15-12h15p12---------------------15------|
B------------13-------------------15b17---|
G--------------14-12----------------------|
D--------------------14-12-10-------------|
A----------------------------12-10--------|
E-----------------------------------------|
Tap to rate this tab
 
# A B C D E F G H I J K L M N O P Q R S T U V W X Y Z