Guitaretab - guitar tabs
Song name
# A B C D E F G H I J K L M N O P Q R S T U V W X Y Z

Thin Lizzy - With Love tab

Highlighted       Show chord diagrams
With Love Thin Lizzy


Intro D,BM,A,BM,x2 D,BM,D,A

Verse1
BM             Em        A                       D
It's a tedious existence laying your love on the line
BM            Em              A            D
Resistance is useless she can leave at any time
BM         Em            A                           D
I must confess that in my quest I felt depressed and restless
BM        Em               A                     F#m
But this Casanova's roving days are over more or less
[ Tab from: http://www.guitaretab.com/t/thin-lizzy/75704.html ]
Chours
BM         Em    F#m G
With  With Love
    D        BM    A           BM
She broke my heart and made me sad
D          BM   D                 A
You foolish boy you lost what you had

Solo Bm,Em,F#m,G Till End of solo

Then The Same Again An d The Riff That They Do Is


E-9-10-----------9-10----------|
B------10-12----------10-12----|
G------------6-7---------------|
D------------------------------|
A------------------------------|
E------------------------------|

Then Play Over This To Double It

E------------------------------|
B------------------------------|
G-6-7---------6-7--------------|
D-----7-9---------7-9----------|
A---------4-5------------------|
E------------------------------|

And That's It Really By KPL
Related for With Love tab
×
With Love