Song name
# A B C D E F G H I J K L M N O P Q R S T U V W X Y Z

Thin Lizzy - Dedication tab

Artist:Thin Lizzy
Song Name:Dedication
Tabbed By:Zack ord
Key:
~:Bend 
h:hammer on

Intro: 
  Guitar 1:
e|--------------------------------------------------------------------------
B|--------------------------------------------------------------------------
G|--4--3-----4-3---4-3~----4-3-----4-3---------4--3-----4-3---4-3~----------
D|-6-6--4-4h6-6-4-6-----4h6-6-4-4h6-6-4-6-4---6-6--4-4h6-6-4-6--------------
A|-----------------------------------------6--------------------------------
E|--------------------------------------------------------------------------

  -------------------------------------------------------------------------|
  -------------------------------------------------------------------------|
  --4--3---4-3-------------------------------------------------------------|
  -6-6--4-6-6--4-----------------------------------------------------------|
  -------------------------------------------------------------------------|
  -------------------------------------------------------------------------|
   Guitar 2 comes in and guitar one repeats  
  Guitar 2:
e|-------------------------------------------------------------------------|
B|-------------------------------------------------------------------------|
G|--4---------------------4------------------------------------------------|
D|--4-x16-6-----2----4----4-x16--------------------------------------------|
A|--2-----6-x16-2-x8-4-x8-2------------------------------------------------|
E|--------4-----0----2-----------------------------------------------------|
  |palm muted                   |  

Strumming on guitar 2 is just fast downward strokes 

Please Rate this tab 
thank you
Tap to rate this tab
# A B C D E F G H I J K L M N O P Q R S T U V W X Y Z