Guitaretab - guitar tabs
Song name
# A B C D E F G H I J K L M N O P Q R S T U V W X Y Z

Thin Lizzy - Cold Sweat tab

This song has been done for 2guitars lead and rhythm.
originally composed by thin lizzy. John Sykes and Scott Gorham - guitars


gtr1 = lead         R = reverb  B = bend  H = hammer
gtr2 = rythm


cold sweat


INTRO

gtr 1+2
    F#     A  B     F#    B  A
e------------------------------------------|
B------------------------------------------|
G------------------------------------------|
D---------3--4----------4--3---------------|
A--4--4---0--2----4--4--2--0---------------|
E--2--2-----------2--2---------------------|   X2  then drums and bass start


gtr 1+2				    gtr 2       gtr 1+2
    F#     A  B     F#    B  A 			F#     A  B     F#    B  A
e---------------------------------(B)(H)(R)11-----------------------------------------|
B-------------------------------------------------------------------------------------|
G-------------------------------------------------------------------------------------|
D---------3--4-----------4--3--------------------------3--4-----------4--3------------|
A--4--4---0--2----4--4---2--0--------------------4--4--0--2-----4--4--2--0------------|
E--2--2-----------2--2---------------------------2--2-----------2--2------------------|

VERSE

gtr 1+2
    F#     A  B     F#    B  A
e------------------------------|
B------------------------------|
G------------------------------|
D---------3--4-----------4--3--|
A--4--4---0--2----4--4---2--0--|
E--2--2-----------2--2---------|  X2 stop quickly after second time play pre chorus


pre chorus

gtr 1+2+bass

e----------------------------------------|
B----------------------------------------|
G----------------------------------------|
D---------2-0----------------------------|
A-5-4-2-0-----4-2------------------------|
E----------------------------------------|

chorus

gtr 1+2
    F#     A  B     F#    B  A
e-------------------------------------------|
B-------------------------------------------|
G-------------------------------------------|
D---------3--4-----------4--3---------------|
A--4--4---0--2----4--4---2--0---------------|
E--2--2-----------2--2----------------------| X2


gtr 1+2+bass
				    Cold  cold
e-------------------------------------------|
B-------------------------------------------|
G-----------------------------------7-----9-|
D---------2-0-----------------------7-----9-|
A-5-4-2-0-----4-2-------------------5-----7-|
E-------------------------------------------|


gtr 1+2
   Sweat			    gtr 2       gtr 1+2
    F#     A  B     F#    B  A 			F#     A  B     F#    B  A
e---------------------------------(B)(H)(R)11-----------------------------------------|
B-------------------------------------------------------------------------------------|
G-------------------------------------------------------------------------------------|
D---------3--4-----------4--3--------------------------3--4-----------4--3------------|
A--4--4---0--2----4--4---2--0--------------------4--4--0--2-----4--4--2--0------------|
E--2--2-----------2--2---------------------------2--2-----------2--2------------------|


VERSE
[ Tab from: http://www.guitaretab.com/t/thin-lizzy/44896.html ]
gtr 1+2
    F#     A  B     F#    B  A
e------------------------------|
B------------------------------|
G------------------------------|
D---------3--4-----------4--3--|
A--4--4---0--2----4--4---2--0--|
E--2--2-----------2--2---------|  X2 stop quickly after second time play pre chorus


pre chorus

gtr 1+2+bass

e----------------------------------------|
B----------------------------------------|
G----------------------------------------|
D---------2-0----------------------------|
A-5-4-2-0-----4-2------------------------|
E----------------------------------------|

chorus

gtr 1+2
    F#     A  B     F#    B  A
e-------------------------------------------|
B-------------------------------------------|
G-------------------------------------------|
D---------3--4-----------4--3---------------|
A--4--4---0--2----4--4---2--0---------------|
E--2--2-----------2--2----------------------| X2


gtr 1+2+bass
				    Cold  cold
e-------------------------------------------|
B-------------------------------------------|
G-----------------------------------7-----9-|
D---------2-0-----------------------7-----9-|
A-5-4-2-0-----4-2-------------------5-----7-|
E-------------------------------------------|

sweat
SOLO

e------------------|
B------------------|
G------------------|
D---------2-0------|
A-5-4-2-0-----4-2--|
E------------------|

Tappy solo X3 gtr1

VERSE

gtr 1+2
    F#     A  B     F#    B  A
e----------------------------------------|
B----------------------------------------|
G----------------------------------------|
D---------3--4-----------4--3------------|
A--4--4---0--2----4--4---2--0------------|
E--2--2-----------2--2-------------------|  X2 stop quickly after second time play pre chorus


pre chorus

gtr 1+2+bass

e----------------------------------------|
B----------------------------------------|
G----------------------------------------|
D---------2-0----------------------------|
A-5-4-2-0-----4-2------------------------|
E----------------------------------------|

chorus

gtr 1+2                             My neck
    F#     A  B     F#    B  A
e----------------------------------------(B)(H)(R)11-----------------------------|
B--------------------------------------------------------------------------------|
G--------------------------------------------------------------------------------|
D---------3--4-----------4--3--------------------------------3--4-----------4--3-|
A--4--4---0--2----4--4---2--0-------------------------4--4---0--2----4--4---2--0-|
E--2--2-----------2--2--------------------------------2--2-----------2--2--------|


gtr 1+2+bass
				    Cold  cold
e-------------------------------------------|
B-------------------------------------------|
G-----------------------------------7-----9-|
D---------2-0-----------------------7-----9-|
A-5-4-2-0-----4-2-------------------5-----7-|
E-------------------------------------------|

  SWEAT
e-----------------------|
B-----------------------|
G-----------------------|
D---------2-0-----------|
A-5-4-2-0-----4-2-------|
E-----------------------|


gt1+2
outro
e-------------------|
B-------------------|
G-----2----4---7--9-|
D-4---2----4---7--9-|
A-4---0----2---5--7-|

keep on going with outro for atleast 40secs
Related for Cold Sweat tab