Song name
# A B C D E F G H I J K L M N O P Q R S T U V W X Y Z

Thin Lizzy - Rosalie tab

Artist: Thin Lizzy
Song: Rosalie
Album: Fighting
Year: 1975
Tuning: Standard
By Gabriel (gabriel@debourg.se)

Intro/ Chorus:

Guitar 2
e:-----------------------------|
B:---2---3-3-2---3-3-3-3-3-2---|
G:---2---2-2-2---2-2-2-2-2-2---|
D:---2---4-4-2---4-4-4-4-4-2---|
A:---0---0-0-0---0-0-0-0-0-0---|
E:-----------------------------|

Guitar 1
e:---------------------------------------|
B:---14---15-15-14---15-15-15-15-15-14---|
G:---14---14-14-14---14-14-14-14-14-14---|
D:---14---16-16-14---16-16-16-16-16-14---|
A:---------------------------------------|
E:---------------------------------------|

Verse:
e:--------------------------------------------------------|
B:------------------------------2---3-3-2---3-3-3-3-3-2---|
G:------------------------------2---2-2-2---2-2-2-2-2-2---|
D:-2---4-4-2-2---2-2-4-2-2-4----2---4-4-2---4-4-4-4-4-2---|
A:-0---0-0-0-0---0-0-4-0-0-0----0---0-0-0---0-0-0-0-0-0---|
E:--------------------------------------------------------|
 PM|------------------------|

Pre- Chorus:
e:--------------------------------------------------|
B:--------------------------------------------------|
G:--------------------------------------------2-2-2-|
D:-2--------------2--------------2------------0-0-0-|
A:-2--2-2-4-2-2-4-2--2-2-4-2-2-4-2------------------|
E:-0--0-0-0-0-0-0-0--0-0-0-0-0-0-0--3--3-2-0--------|
   PM|-----------|  |-----------|

Bridge:
e:----------------------------------------------|
B:----------------------------------------------|
G:----------------------------------------------|
D:-2--4-4-2---------------2--4-4-2--------------|
A:-0--0-0-0--2---4-2-4-2--0--0-0-0--2---4-2-4-2-|
E:-----------0---0-0-0-0------------0---0-0-0-0-|

e:---------------------------------------------|
B:---------------------------------------------|
G:-2--x-----x-2--x-----------------------------|
D:-0--x--2--x-0--x--2--------------------------|
A:-------0----------0--2-2-4-2-2-4-2-2-4-2-2-4-|
E:---------------------0-0-0-0-0-0-0-0-0-0-0-0-|
		    PM|-----------------------|

Solo, with wah (Guitar 2 plays first bridge riff)
e:-------------------|--------------------------|
B:-17b19-17br19-17~~~|-17-15-17-----------------|
G:-------------------|-----------16b18-14-16----|
D:-------------------|-----------------------16-|
A:-------------------|--------------------------|
E:-------------------|--------------------------|

|--------------------------|-------------------------|
|------------------17------|-------------------------|
|-14~~------16b18-----14~~~|--------18p16p14----14~~~|
|-----16-14----------------|-16\-------------16------|
|--------------------------|-------------------------|
|--------------------------|-------------------------|

|--------------------------------------|-------------|
|--------------------------------------|-----17b19~~~|
|-16b18--14pb16-16pb18-16brp14----14~~~|-------------|
|------------------------------16------|-16----------|
|--------------------------------------|-------------|
|--------------------------------------|-------------|

|------------|---------------17------------|
|-17pb19~~~~~|-17b19--17b19-----17b19-17~~~|
|------------|-----------------------------|
|------------|-----------------------------|
|------------|-----------------------------|
|------------|-----------------------------|

Song structure
Intro (00.00 - 00.11)
Verse 1 (00.11 - 00.25)
Pre-Chorus (00.25 - 00.40)
Chorus (00.40 - 00.54)
Verse 2 (00.54 - 01.08)
Pre-Chorus (01.08 - 01.22)
Chorus (01.22 - 01.37)
Bridge (01.37 - 01.53)
Solo (01.53 - 02.08)
Verse 3 (02.08 - 02.22)
Pre-Chorus (02.22 - 02.36)
Chorus (02.36 - 02.56)

Legend:
PM= palm mute
b= bend
pb= pre- bend
~= vibrato
h= hammer on
p= pull of
\= slide down
/= slide up
Tap to rate this tab
 
# A B C D E F G H I J K L M N O P Q R S T U V W X Y Z