Song name
# A B C D E F G H I J K L M N O P Q R S T U V W X Y Z

Thin Lizzy - Banshee tab

Help us improve GuitareTab! Take a short survey!
-------------------------------------------------------------------------------
			    Banshee - Thin Lizzy
-------------------------------------------------------------------------------
Tabbed by:Jim Myers
Email:jemyers1975@yahoo.com

Tuning:EADGBE

e|----------------------3---3-3-3--2-----------------------------------------|
B|-------------------------------------5-------------------------------------|
G|---------------------------------------------------------------------------|
D|------------0--------------------------------------------------------------|
A|-----2--3---------------------------------------------3---2---0------------|
E|--3-------------3---------------------------------3------------------------|

e|------------------------------------10----10----12-----15~------15---12-----|
B|-12--10-----------------------12-----------------------------------------12-|
G|---------12---9-------12----------------------------------------------------|
D|------------------12--------------------------------------------------------|
A|----------------------------------------------------------------------------|
E|----------------------------------------------------------------------------|

e|---------------------------------------------------------------------------|
B|-12--13---12--10---12---10-------------------------------------------------|
G|----------------------------12---9---------12-----2x-----------------------|
D|--------------------------------------12-----------------------------------|
A|---------------------------------------------------------------------------|
E|---------------------------------------------------------------------------|


| /  slide up
| \  slide down
| h  hammer-on
| p  pull-off
| ~  vibrato
| +  harmonic
| x  Mute note
===============================================================================
b
Related for Banshee tab