Song name
# A B C D E F G H I J K L M N O P Q R S T U V W X Y Z

Thin Lizzy - Hollywood Live tab

Hollywood by Thin Lizzy

Great song by Thin Lizzy, i have seen all the tabs and there partly wrong so i though 
show you the original version of this song, this is what Scott Gorham and Snowy White 
on all of the videos iv watched of them and there fingering positions.

The tab is from the live version were he actually plays in Eb or half a step down to 
Phil Lynott's Voice.

please rate :)


Eb|---------------|----------------|          |----------------|
Bb|---------------|----------------|          |----------------|
Gb|---------------|----------------|          |----------------|
Db|---------------|----------2-2-4-| X 4 then |-2--4--6--4--2--|
Ab|-2-2-4--x-x-x--|-2--2-4---0-0-2-|          |-0--2--4--2--0--|
Eb|-0-0-2--x-x-x--|-0--0-2---------|          |----------------|

Verse

The verse is exactly the same and the riff above

Chorus
|----------------|----------------|-------------------|
|----------------|----------------|-------------------|
|----------------|----------------|-------------------|
|---6------2--4--|--------2-------|-7--6--4--2------2-|
|---4------0--2--|----2-4---4-----|-5--4--2--0--2-4---|
|----------------|----------------|-------------------|

Verse
Chorus

Bridge

Guitar 1
   PM..........
|-----------------------------------------------------|
|-----------------------------------------------------|
|-----------------------------------------------------|
|-----------------2--4--6--6--2-----------------------|
|--444444444444---0--2--4--2--0-----------------------|
|--222222222222---------------------------------------|

Guitar 2

|-----------------------------------------------------|
|------------------------------------------15^17------|
|------2--4p2---2---2h4p2----2------------------------|
|--2-4--------4---4-------4-----2/4-4-----------------|
|-----------------------------------------------------|
|-----------------------------------------------------|


This is just a guess so if you think its wrong correct it.

|------17p14--------------------------------------------|
|------------17p14--------17p14-------------------------|
|------------------16p14--------16p14-16p14----14-16^---|
|-------------------------------------------16----------|
|-------------------------------------------------------|
|-------------------------------------------------------|

|--------------------------------------------------------|
|-14-------------14--------------------------------------|
|---->18--14-16^---->18-16p14----------------------------|
|-----------------------------16-14-16-------------------|
|--------------------------------------16-14-12h14p12----|
|-----------------------------------------------------14-|

then the harmony

Guitar 1

|-----------------------------------------------------|
|-----------------------------------------------------|
|---7-6-6/9-------------------------------------------|
|------------9/11--9-7--------7-----------------------|
|-----------------------8-10--------------------------|
|-----------------------------------------------------|


Guitar 2

|-----------------------------------------------------|
|---------10------------------------------------------|
|---11-9----------------------------------------------|
|------------11\12--11--9---7--9--11------------------|
|-----------------------------------------------------|
|-----------------------------------------------------|

Guitar 1


|-----------------------------------------------------|
|---15-14-12-10---------------------------------------|
|-----------------------------------------------------|
|----------------------2------------------------------|
|----------------2--4-----4---------------------------|
|-----------------------------------------------------|

Guitar 2


|-----------------------------------------------------|
|---10-9-7-5------------------------------------------|
|-----------------------------------------------------|
|---------------------2-------------------------------|
|---------------2--4-----4----------------------------|
|-----------------------------------------------------|

Verse
Chorus until ending


|-----------------------------------------------------|
|-----------------------------------------------------|
|-----------------------------------------------------|
|--2-4-6-4--------------------------------------------|
|--0-2-4-2--2-4---------------------------------------|
|-----------0-2---------------------------------------|

thank you sorry if theres anything wrong this is my first tab.

GLL
Tap to rate this tab
 
# A B C D E F G H I J K L M N O P Q R S T U V W X Y Z