Guitaretab - guitar tabs
Song name
# A B C D E F G H I J K L M N O P Q R S T U V W X Y Z

Thin Lizzy - Chinatown tab

----------------------------------------------------------------------
                   Thin Lizzy - Chinatown
----------------------------------------------------------------------
Tabbed by: Audun Spachmo
           fikogdeng@yahoo.no

I don't bother to write down wich guitar plays what. You can figure
that out on your own.

INTRO:
Played 12 times
e|-------------------------------------------------------------------|
B|-------------------------------------------------------------------|
G|-------------------------------------------------------------------|
D|----------0-0---0h2------------------------------------------------|
A|------0h2-----2----------------------------------------------------|
E|--0-0--------------------------------------------------------------|

いいいい
e|-------------------------------------------------------------------|
B|-------------------------------------------------------------------|
G|-9p7---7-----------------------------------------------------------|
D|-----9---9p7-9p7-5-7p5---5-----------------------------------------|
A|-----------------------7---7p5-7p5---5-----------------------------|
E|-----------------------------------7---7h5-7h5-3-0-----------------|
...or you can play the part above like this:
(some people might find it easier)
e|-0----------------------------------------------------------------|
B|---3-0-3-0---0----------------------------------------------------|
G|-----------2---2-0-2-0---0----------------------------------------|
D|-----------------------2---2-0-2-0---0----------------------------|
A|-----------------------------------2---2-0-2-0--------------------|
E|-----------------------------------------------3-0----------------|
いいいい

e|-15p12----12-----------12-----------------------------------------|
B|-------15----15p12--10--------------------------------------------|
G|----------------------------16p14-12-14-12-------12---------------|
D|-------------------------------------------14--9------------------|
A|------------------------------------------------------------------|
E|------------------------------------------------------------------|


e|------------------------------------------------------------------|
B|------------------------------------------------------------------|
G|------------------------------------------------------------------|
D|-2--2-----------------------0-------------------------------------|
A|-2----------0-2-0-2-3-2-3-5---------------------------------------|
E|-0----0-2-3-------------------------------------------------------|
End of Intro
いいいいいいいいいいいいいいいいいいいいいいいいいいいいいいいいいい

Living and dying...
x4
e|----------------------|
B|----------------------|
G|----------------------|
D|----------0-0---0h2---|
A|------0h2-----2-------|
E|--0-0-----------------|


e|-----------7-7-------------------------------------------------------|
B|-----------7-7------7-7-------7-7------------------------------------|
G|--------------------7-7-------7-7------------------------------------|
D|------------------------------------------0-0---0h2--------0-0---0h2-|
A|---------------------------------------0h2----2---------0h2-----2----|
E|-7-7-7-7-7----7-7-7-----7-7-7-------0-0-------------0-0--------------|

e|---------------------------------------------|
B|---------------------------------------------|
G|-----------0-0-------2-2-------0-0-----------|
D|-2-2---0h2-2-2---0h2-2-2---0h2-2-2----0h2----|
A|-0-0-0---------0---------0----------0--------|
E|---------------------------------------------|

e|--------------------------------------|
B|--------------------------------------|
G|--------------------------------------|
D|---------0-0---0h2---------0-0---0h2--|
A|-----0h2-----2---------0h2-----2------|
E|-0-0---------------0-0----------------|


e|---------------------------------------------------|
B|-3-------------------------------------------------|
G|-4-2-5---------------------------------------------|
D|-4-2-5---------------0-0---0h2---------0-0---0h2---|
A|-2-0-3-----------0h2-----2---------0h2-----2-------|
E|-------------0-0---------------0-0-----------------|


e|---------------------------------------------------|
B|-3-------------------------------------------------|
G|-4-2-5---------------------------------------------|
D|-4-2-5---------------0-0---0h2---------0-0---0h2---|
A|-2-0-3-----------0h2-----2---------0h2-----2-------|
E|-------------0-0---------------0-0-----------------|

いいいいいいいいいいいいいいいいいいいいいいいいいい

Laughing and crying...
x4
e|----------------------|
B|----------------------|
G|----------------------|
D|----------0-0---0h2---|
A|------0h2-----2-------|
E|--0-0-----------------|


e|-----------7-7-------------------------------------------------------|
B|-----------7-7------7-7-------7-7------------------------------------|
G|--------------------7-7-------7-7------------------------------------|
D|------------------------------------------0-0---0h2--------0-0---0h2-|
A|---------------------------------------0h2----2---------0h2-----2----|
E|-7-7-7-7-7----7-7-7-----7-7-7-------0-0-------------0-0--------------|

e|---------------------------------------------|
B|---------------------------------------------|
G|-----------0-0-------2-2-------0-0-----------|
D|-2-2---0h2-2-2---0h2-2-2---0h2-2-2----0h2----|
A|-0-0-0---------0---------0----------0--------|
E|---------------------------------------------|

e|--------------------------------------|
B|--------------------------------------|
G|--------------------------------------|
D|---------0-0---0h2---------0-0---0h2--|
A|-----0h2-----2---------0h2-----2------|
E|-0-0---------------0-0----------------|


e|---------------------------------------------------|
B|-3-------------------------------------------------|
G|-4-2-5---------------------------------------------|
D|-4-2-5---------------0-0---0h2---------0-0---0h2---|
A|-2-0-3-----------0h2-----2---------0h2-----2-------|
E|----------0-0------------------0-0-----------------|


e|---------------------------------------------------|
B|-3-------------------------------------------------|
G|-4-2-5---------------------------------------------|
D|-4-2-5---------------0-0---0h2---------0-0---0h2---|
A|-2-0-3-----------0h2-----2---------0h2-----2-------|
E|-------------0-0---------------0-0-----------------|

いいいいいいいいいいいいいいいいいいいいいいいいいい

Bridge:
x2
e|---------------|
B|---------------|
G|---------------|
D|-2-------------|
A|---------0-2---|
E|---0-2-3-------|

いいいいいいいい
[ Tab from: http://www.guitaretab.com/t/thin-lizzy/31696.html ]
Chinatown, it's a different scene...
e|-------------------------------------------------------|
B|-----------------------------------------12------------|
G|---------4------------------4-----7------12------4-5-7-|
D|--5------4-----2-----5------4-----7------12------4-5-7-|
A|--5------2-----2-----5------2-2-3-5-5h7--10-10-0-2-3-5-|
E|--3--3-2---3-2-0-0-2-3--3-2----------------------------|

e|----------------------------------------------------|
B|----------------------------------------------------|
G|-9p7---7--------------------------------------------|
D|-----9---9p7-9p7-5-7p5---5-----------------------2--|
A|-----------------------7---7p5-7p5---5-----------2--|
E|-----------------------------------7---7h5-7h5-3-0--|

いいいいいいいいいいいいいいいいいいいいいいいいいいい
You can figure out the solo on your own
e|----------------------------------------------------|
B|----------------------------------------------------|
G|------------5-4-5-7---------------------------------|
D|---------0--5-4-5-7---------------------------------|
A|-----0h2----3-2-3-5---------------------------------|
E|-0-0------------------------------------------------|


e|-15p12----12-----------12---------------------------|
B|-------15----15p12--10------------------------------|
G|----------------------------16p14-12-14-12-------12-|
D|-------------------------------------------14--9----|
A|----------------------------------------------------|
E|----------------------------------------------------|

Living and dying...
x4
e|----------------------|
B|----------------------|
G|----------------------|
D|----------0-0---0h2---|
A|------0h2-----2-------|
E|--0-0-----------------|


e|-----------7-7-------------------------------------------------------|
B|-----------7-7------7-7-------7-7------------------------------------|
G|--------------------7-7-------7-7------------------------------------|
D|------------------------------------------0-0---0h2--------0-0---0h2-|
A|---------------------------------------0h2----2---------0h2-----2----|
E|-7-7-7-7-7----7-7-7-----7-7-7-------0-0-------------0-0--------------|

e|---------------------------------------------|
B|---------------------------------------------|
G|-----------0-0-------2-2-------0-0-----------|
D|-2-2---0h2-2-2---0h2-2-2---0h2-2-2----0h2----|
A|-0-0-0---------0---------0----------0--------|
E|---------------------------------------------|

e|--------------------------------------|
B|--------------------------------------|
G|--------------------------------------|
D|---------0-0---0h2---------0-0---0h2--|
A|-----0h2-----2---------0h2-----2------|
E|-0-0---------------0-0----------------|


e|---------------------------------------------------|
B|-3-------------------------------------------------|
G|-4-2-5---------------------------------------------|
D|-4-2-5---------------0-0---0h2---------0-0---0h2---|
A|-2-0-3-----------0h2-----2---------0h2-----2-------|
E|-------------0-0---------------0-0-----------------|


e|---------------------------------------------------|
B|-3-------------------------------------------------|
G|-4-2-5---------------------------------------------|
D|-4-2-5---------------0-0---0h2---------0-0---0h2---|
A|-2-0-3-----------0h2-----2---------0h2-----2-------|
E|-------------0-0---------------0-0-----------------|


e|------------------------------|
B|------------------------------|
G|------------------------------|
D|---2--------------------------|
A|-----------0-2-0-2-3-2-3-5----|
E|-----0-2-3--------------------|

Solo: You'll have to figure out the solo your selves,
I just write the other guitar.
x4
e|--------------------------------------------|
B|--------------------------------------------|
G|---------0-0---0h2--------------------------|
D|-----0h2-----2------------------------------|
A|-0-0----------------------------------------|
E|--------------------------------------------|

x4
e|--------------------------------------------|
B|--------------------------------------------|
G|--------------------------------------------|
D|----------0-0---0h2-------------------------|
A|------0h2-----2-----------------------------|
E|--0-0---------------------------------------|

x4
e|--------------------------------------------|
B|--------------------------------------------|
G|---------0-0---0h2--------------------------|
D|-----0h2-----2------------------------------|
A|-0-0----------------------------------------|
E|--------------------------------------------|

e|---------------|
B|---------------|
G|--5-4-5-7------|
D|--5-4-5-7------|
A|--3-2-3-5------|
E|---------------|

x2
e|--------------------------------------------|
B|--------------------------------------------|
G|--------------------------------------------|
D|----------0-0---0h2-------------------------|
A|------0h2-----2-----------------------------|
E|--0-0---------------------------------------|

e|---------------|
B|---------------|
G|--5-4-5-7------|
D|--5-4-5-7------|
A|--3-2-3-5------|
E|---------------|

x2
e|--------------------------------------------|
B|--------------------------------------------|
G|--------------------------------------------|
D|----------0-0---0h2-------------------------|
A|------0h2-----2-----------------------------|
E|--0-0---------------------------------------|

e|---------------|
B|---------------|
G|--5-4-5-7------|
D|--5-4-5-7------|
A|--3-2-3-5------|
E|---------------|

x2
e|--------------------------------------------|
B|--------------------------------------------|
G|--------------------------------------------|
D|----------0-0---0h2-------------------------|
A|------0h2-----2-----------------------------|
E|--0-0---------------------------------------|

e|---------------|
B|---------------|
G|--5-4-5-7------|
D|--5-4-5-7------|
A|--3-2-3-5------|
E|---------------|

x2
e|--------------------------------------------|
B|--------------------------------------------|
G|--------------------------------------------|
D|----------0-0---0h2-------------------------|
A|------0h2-----2-----------------------------|
E|--0-0---------------------------------------|

e|---------------|
B|---------------|
G|--5-4-5-7------|
D|--5-4-5-7------|
A|--3-2-3-5------|
E|---------------|

x2
e|--------------------------------------------|
B|--------------------------------------------|
G|--------------------------------------------|
D|----------0-0---0h2-------------------------|
A|------0h2-----2-----------------------------|
E|--0-0---------------------------------------|


e|--------------------------------------------|
B|--------------------------------------------|
G|--5-3-2-3-5-3-2-4-5-4-2-4-------------------|
D|--5-3-2-3-5-3-2-4-5-4-2-4-------------------|
A|--3-2-0-2-3-2-0-2-3-2-0-2-------------------|
E|--------------------------------------------|


e|----------------------------------------------------|
B|----------------------------------------------------|
G|-9p7---7--------------------------------------------|
D|-----9---9p7-9p7-5-7p5---5-----------------------2--|
A|-----------------------7---7p5-7p5---5-----------2--|
E|-----------------------------------7---7h5-3h5p3-0--|
Related for Chinatown tab