Guitaretab - guitar tabs
Song name
# A B C D E F G H I J K L M N O P Q R S T U V W X Y Z

Third Day - Its A Shame tab

It's A Shame
Third Day
Wire Album
sparrow records

This has always been a great song to hear and definitely to play, I will never
forget hearing this song live, I was front stage, right underneath where Mark
usually stands, Looking at Mac while he sang this song and crying at the same 
time.  A real tear jerker this one is if you take the time to read the lyrics.
The guys really are heartfelt when is comes to abuse, divorce, poverty,etc..
Some real Jesus qualities , God has really blessed Third Day, and I definitely
thank God for this band. Praise God in all you do....

Guitar 1: Capo on 9th fret
Guitar 2: capo on 4th fret

INTRO

Gtr 1

E|-------0---2----0------3----------------|
B|---3-3---3----3---3---3----3------------|
G|--2------------------2---2--------------|
D|-0---------------------------repeat-----|
A|----------------------------------------|
E|----------------------------------------|

VERSE

Gt1
D, A , E, G
(play almost like this)

   Dsus    Asus   Em   G
E|--0h2-----------------0--------|
B|--3------0h2-----0----3--------|
G|--2------2-------0----0--------|
D|--0------2-------2----0--------|
A|---------0-------2----x--------|
E|-----------------0----3--------|

Gtr. 2 
(plays chords first time)
G,D,Am,C

(Second Verse plays this)

E|-3---------2--------3---------------------------------------|
B|---3-------3-3--------1----------------1-----1----0---------|
G|-----0-----2---2--------0------------0-------0----0-----2---|
D|-------0---------0--------2------0h2------2-----2----0--0---|
A|-------------------------------3----------------------------|
E|------------------------------------------------------------|


E|-3---------2--------3---------------------------------------|
B|---3-------3-3--------1----------------1----1--0-----0------|
G|-----0-----2---2--------0------------0------0--0--2--0------|
D|-------0---------0--------2------0h2------2-------0---------|
A|-------------------------------3----------------------------|
E|------------------------------------------------------------|

PRE-CHORUS
[ Tab from: http://www.guitaretab.com/t/third-day/134067.html ]
Gtr 1
(hard to hear exactly what Brad plays but you can just strike the chords or complement
What Mark is plays by walking or picking each chord)
G, D, G
G, D, EM
EM, D, G

Gtr. 2
E|-----------------------------------------------------------------|
B|------1------0-------1-------------------------1-------3-----1---|
G|-----0------0-------0---------0-------0-------2-------0-----0----|
D|----------------------------2-------0----------------------------|
A|--3-------2--------3-----3-------2---------0-------2------3------|
E|-----------------------------------------------------------------|

CHORUS

Gtr. 1
Em, G, Dsus, A

Play 2x over chorus
E|-----2-----3-----2----------2-----3-----2-----------0---2---0---------5------3-------2-------|
B|---0---0-----0-----0------3---3-----3-----3-------3---3---3---3-----2----2------2------0-----|
G|-0-------0-----0--------0-------0-----0-------0h2-----------------2--------2------2----------|
D|---------------------------------------------------------------------------------------------|
A|---------------------------------------------------------------------------------------------|
E|---------------------------------------------------------------------------------------------|

Gtr. 2
Am, C, G, D

Right after chorus play

Gtr. 1
G, A

Gtr. 2
E|-----0---0-//0--0--------|
B|-----1---1-//3--3---\1---|
G|--0--0---0-//0--0---\0---|
D|--2--2---2-//4--4---\2---|
A|--3--3---3-//5------\3---|
E|-------------------------|





BRIDGE

Gtr. 1
E|------------------0-----0--0------0-2h3--3-3--3p2--0----|
B|---3----3---------3-----0--3------0--0----0-0--0----0----|
G|-0---0--2p0-------2-----2--2------0----------------------|
D|-0----------0---0-------2-------2-2----------------------|
A|-x--------------------0---------2-2----------------------|
E|-3------------------------------0------------------------|


E|------------0-------0-----0----3-------------------------|
B|-3--3-------3-------3---1h3-3--3-----2h3----3----2-------|
G|-0--2p0-----2-----2-----0---0--0-----2------2----2-------|
D|-0------0---04h5-------2---3--2-----2------2----2-------|
A|-x----------------------3------3-----0-----------0-------|
E|-3-------------------------------------------------------|

Gtr. 2
C,G,D,am
C,G,F,Dsus4, D

play over chorus again and a couple more times
then at the end kick in the intro if you have 9th fret capo'd



Related for Its A Shame tab