Song name
# A B C D E F G H I J K L M N O P Q R S T U V W X Y Z

Third Day - Come Together tab

Third Day 
Come Together



I'm going to try to make this concise, but as I tabbed the entire 
song, it is kind of long.  I'll make use of riffs and repeats to 
keep it short.  The notes in parentheses are held but not played.

These are the main chords 

G5(XII) x x x121515
D(XIV)  x x x141514             
G5      3 5 5 x x x             
C5	x 3 5 5 x x
F5      1 3 3 x x x              
C       x 3 2 0 1 0             
G       3 x 0 0 0 3            
D5      x 5 7 7 x x
                                    

INTRO

  Gtr 1 (Riff 1a)                        
||----------------------15-15-15-15-15-15--||
||o-15-15-x-x-15-x-15-x-15-15-15-15-15-15-0||
||--12-12-x-x-12-x-12-x-12-12-12-12-12-12--|| x2
||-----------------------------------------||
||o---------------------------------------0||
||-----------------------------------------||
||
|| Gtr 2 (Riff 2a)
||                  ~~         ~~
||-----------------------------------------||
||0---------------------------------------o||
||-----------------------------------------||
||-------------5----5----------5-----------|| x2
||0----------------------3----------------o||
||---3-------------------------------------||


   (Riff 1a)
||----------------------15-15-15-15-15-15-|
||o-15-15-x-x-15-x-15-x-15-15-15-15-15-15-|
||--12-12-x-x-12-x-12-x-12-12-12-12-12-12-|
||----------------------------------------|
||o---------------------------------------|
||----------------------------------------|
|
|  (Riff 2a)        ~~         ~~
||----------------------------------------|
||o---------------------------------------|
||----------------------------------------|
||-------------5----5----------5----------|
||o----------------------3----------------|
||---3------------------------------------|

  (Riff 1b)
|---------------------14--14-14-14-14-14--||
|-15-15-x-x-15-x-15-x-15--15-15-15-15-15-o||
|-12-12-x-x-12-x-12-x-14--14-14-14-14-14--||
|-----------------------------------------||
|----------------------------------------o||
|-----------------------------------------||
|
| (Riff 2b)       ~~          ~~
|-----------------------------------------||
|----------------------------------------o||
|-----------------------------------------||
|------------5----5-----------4-----------||
|---------------------<5>----------------o||
|--3--------------------------------------||
                      


| Gtr 1 plays Riff 1a then Riff 1b | (these are played together)
| Gtr 2 plays Riff 2a then Riff 2b |
 

  Gtr 1 plays Riff 1a twice
  Gtr 2
|------------------------------|------------------------------|
|------------------------------|------------------------------|
|------------------------------|----------------2h4----2h4----|
|--3---------------------------|--2---------------------------|
|------------------------------|------------------------------|
|------------------------------|------------------------------|


VERSE
  Gtr 1                         x2
||-----------|------------------||
||o----------|-----------------o||
||-----------|------------5--5--||
||--5--------|------------5--5--||
||o-5--------|------------3--3-o||
||--3--------|------------------||

|----------|------------|----------|-------|
|----------|------------|----------|-------|
|----------|------------|----------|-5-----|
|-5--------|-(5)--------|-3--------|-5-----|
|-5--------|-(5)--------|-3--------|-3-----|
|-3--------|-(3)--------|-1--------|-------|


                              3x
||-----------|----------------|| |----------|-------|
||o-1--------|------0h1--0---o|| |----------|-------|
||--0--------|-0----0----0-0--|| |----------|-7-----|
||--2--------|-0----0----0-0--|| |-3--------|-7-----|
||o-3--------|-x----x--------o|| |-3--------|-5-----|
||-----------|-3----3---------|| |-1--------|-------|


CHORUS
   Gtr 1 plays Riff 1a         Riff 1b
   Gtr 2 plays Riff 2a         Riff 2b
   Gtr 3 (Riff 3)                                        x3
||---------------------------|---------------------------||
||o-12---10--12---10--12-----|-10p8----8----------------o||
||---------------------------|---------------------------||
||---------------------------|---------------------------||
||o--------------------------|--------------------------o||
||---------------------------|---------------------------||


  Gtr 1 plays Riff 1a twice
  Gtr 2 
|----------------------------|---------------------------|
|----------------------------|---------------------------|
|----------------------------|---------------------------|
|--3--------------3-----5----|--2------------------------|
|----------------------------|---------------------------|
|----------------------------|---------------------------|


|-------------------|----------------------|
|-------------------|----------------------|
|-------------------|---------------5----5-|
|--5----------------|---------------5----5-|
|--5----------------|---------------3----3-|
|--3----------------|----------------------|
|                            
|-------------------|----------------------|
|-------------------|----------------------|
|-------------------|-------------2h4--2h4-|
|--5----------------|----------------------|
|--5----------------|----------------------|
|--3----------------|----------------------|
|
| Gtr 3 (Riff 3)                   
|-------------------|----------------------|
|-12-10-12--10-12---|-10p8-8---------------|
|-------------------|----------------------|
|-------------------|----------------------|
|-------------------|----------------------|
|-------------------|----------------------|


VERSE 2
                                 x2
||------------|------------------||
||o-----------|-----------------o||
||------------|------------5--5--||
||---5--------|------------5--5--||
||o--5--------|------------3--3-o||
||---3--------|------------------||
|
|  Gtr 2 plays this only 1st time
||------------|------------------||
||o-----------|-----------------o||
||---0--------|------------------||
||------------|------------------||
||o-----------|-----------------o||
||------------|------------------||


|----------|------------|----------|-------|
|----------|------------|----------|-------|
|----------|------------|----------|-5-----|
|-5--------|-(5)--------|-3--------|-5-----|
|-5--------|-(5)--------|-3--------|-3-----|
|-3--------|-(3)--------|-1--------|-------|

                                                            3x
||----------------------------|-----------------------------||
||o---5-----------------------|---3-----------3----3-3-----o||
||--x-5-x-x-5-x-5-x-5--x-x-x--|-x-4-x-x-4-x-x-4h5--4-4-x-x--||
||--x-5-x-x-5-x-5-x-5--x-x-x--|-x-5-x-x-5-x-x-5----5-5-x-x--||
||o-x---x-x-3-x-3-x-3--x---x--|-x---x-x-5-x-x--------------o||
||----------------------------|-----------------------------||


|--------------------------|-x-14-x-x-14-x-14-x-14-14-14-14-14-14-|
|---1----------------------|-x-15-x-x-15-x-15-x-15-15-15-15-15-15-|
|-x-2-x-x-2-x-2-x-2--x-x-x-|-x-14-x-x-14-x-14-x-14-14-14-14-14-14-|
|-x-3-x-x-3-x-3-x-3--x-x-x-|--------------------------------------|
|-x---x-x-3-x-3-x-3--x---x-|--------------------------------------|
|--------------------------|--------------------------------------|


CHORUS 2
  Gtr 1 plays Riff 1a     Riff 1b
  Gtr 2 plays Riff 2a     Riff 2b
  Gtr 3                  (Riff 4)                          3x
||----------------------|----------------------------------||
||o---------------------|-12--13--15--12--13--15--12--13--o||
||----------------------|----------------------------------||
||----------------------|----------------------------------||
||o---------------------|---------------------------------o||
||----------------------|----------------------------------||


  Gtr 1 plays Riff 1a twice
  Gtr 2
|----------------------------|------------------------------|
|----------------------------|------------------------------|
|----------------------------|------------------------------|
|--3--------------------5----|--2---------------------------|
|----------------------------|------------------------------|
|----------------------------|------------------------------|
|
| Gtr 3
|----------------------------|------------------------------|
|-13-------------------------|-12---------------------------|
|----------------------------|------------------------------|
|----------------------------|------------------------------|
|----------------------------|------------------------------|
|----------------------------|------------------------------|


BRIDGE
|--------------|--------------|--------------|--------------|
|--------------|--------------|--------------|--------------|
|--------------|--------------|--------------|--------------|
|--5--5--5--5--|--------------|--5--5--5--5--|--7--7--7--7--|
|--3--3--3--3--|--5--5--5--5--|--3--3--3--3--|--5--5--5--5--|
|--------------|--3--3--3--3--|--------------|--------------|

|--------------|--------------|
|--------------|--------------|
|--------------|--------------|
|--5--5--5--5--|--------------|
|--3--3--3--3--|--2--2--2--2--|
|--------------|--0--0--0--0--|

|--------------|-----------------|---------------|
|--------------|-----------------|---------------|
|--------------|-----------------|---------------|
|--5--5--5--5--|--7-7-7-7--7-7-7-|--7-7-7--7-7-7-|
|--3--3--3--3--|--5-5-5-5--5-5-5-|--5-5-5--5-5-5-|
|--------------|-----------------|---------------|


CHORUS 3
| Gtr 1 plays Riff 1a, Riff 1b |  (repeat x2)
| Gtr 2 plays Riff 2a, Riff 2b |


  Gtr 1 plays Riff 1a       Riff 1b
  Gtr 2 plays Riff 2a       Riff 2b
  Gtr 3
|-------------------------|----------------------|
|-------------------------|----------------------|
|-------------------------|----------------------|
|----------------------5--|------------7-4-------|
|--------2--3----5--7-----|----------------------|
|--3--5-------------------|----------------------|


  Gtr 1 plays Riff 1a twice
  Gtr 2
|-------------------------------|-----------------------------|
|-------------------------------|-----------------------------|
|-------------------------------|-----------------------------|
|--3----------------------------|--2--------------------------|
|-------------------------------|-----------------------------|
|-------------------------------|-----------------------------|
|
| Keyboard
|-------------------------------|-----------------------------|
|-------------------------------|-----------------------------|
|--------------5----------------|--------------5--------------|
|--3----------------------------|--2--------------------------|
|-------------------------------|-----------------------------|
|-------------------------------|-----------------------------|


| Gtr 1 plays Riff 1a   |  Riff 1b  |
| Gtr 2 plays Riff 2a   |  Riff 2b  | x3
| Gtr 3       tacet     |  Riff 4   |


  Gtr 1 plays Riff 1a twice
  Gtr 2
|--------------------|-------------------|
|--------------------|-------------------|
|--------------------|-------------------|
|--3-----------------|--2----------------|
|--------------------|-------------------|
|--------------------|-------------------|


| Gtr 1 plays Riff 1a   |  Riff 1b  |
| Gtr 2 plays Riff 2a   |  Riff 2b  | x3
| Gtr 3       tacet     |  Riff 4   |


  Gtr 1 plays Riff 1a twice
  Gtr 2
|--------------------|-------------------|
|--------------------|-------------------|
|--------------------|-------------------|
|--3-----------------|--2----------------|
|--------------------|-------------------|
|--------------------|-------------------|


  Gtr 1 plays Riff 1a twice
  Gtr 2
|--------------------|-------------------|
|--------------------|-------------------|
|--------------------|----------5----5---|
|--3-----------------|--2-------5----5---|
|--------------------|----------3----3---|
|--------------------|-------------------|


OUTRO
|-------------------|------------------|
|-------------------|------------------|
|-------------------|------------------|
|--5----------------|-(5)--------------|
|--5----------------|-(5)--------------|
|--3----------------|-(3)--------------|
|
|-------------------|------------------|
|-------------------|------------------|
|-------------------|---------7-5p4-5p-|
|--5----------------|------------------|
|--5----------------|------------------|
|--3----------------|------------------|
|
| Riff 3
|-------------------|------------------|
|-12-10-12--10-12---|-10p8-8-----------|
|-------------------|------------------|
|-------------------|------------------|
|-------------------|------------------|
|-------------------|------------------|


   Gtr 1 plays Riff 1a twice
   Gtr 3 plays Riff 3
   Gtr 2 (Riff 5)                                 x2
||-----------------------|------------------------||
||o----------------------|-----------------------o||
||---4---(4)\------------|-----------7---5p4---5--||
||-----------------------|------------------------|| 
||o----------------------|-----------------------o||
||-----------------------|------------------------||

 (begin fade out)
| Gtr 1 plays Riff 1a twice  |
| Gtr 2 plays Riff 5         |
| Gtr 3 plays Riff 3         |
Tap to rate this tab
 
# A B C D E F G H I J K L M N O P Q R S T U V W X Y Z