Song name
# A B C D E F G H I J K L M N O P Q R S T U V W X Y Z

Third Day - Otherside tab

Guitar 1:

e--------------------------------------------------------------------|
B--------------------------------------------------------------------|
G--------------------------------------------------------------------|
D------------9-7-5---------------------------------------------------|
A--5/7-7-5-7------7-5/7-7-5-7----------------------------------------|
E-----------------------------9-7-5-0--------------------------------|

Guitar 2:

e------------7-------------------------------------------------------|
B--------------10-8--------------------------------------------------|
G--7/9-9-7-9--------9-7/9-9-7-9--------------------------------------|
D-------------------------------9-7----------------------------------|
A-----------------------------------10-7-----------------------------|
E--------------------------------------------------------------------|
Tap to rate this tab
# A B C D E F G H I J K L M N O P Q R S T U V W X Y Z