Song name
# A B C D E F G H I J K L M N O P Q R S T U V W X Y Z

Third Day - Thief tab

tabbed by DTExpress
This is my first tab and it is the way I play it and it sounds really good!

(capo 3rd fret)
Intro:
     Am
e ----------------------------|
B ----0--0h1---1p0-----0--0h1-|
G ---2-2-----------2--2-2-----|
D --2---2-----2---2--2---2----|
A -0----------------0---------|
E ----------------------------|

  I am a thief,     I am a murderer,   walking up this lonely hill
          Am                  G                D                Am
e ------------------------------------------------0--0h2------------------|
B ----------0--0h1-----------------0-------------3-3---------------0--0h1-|
G ---------2-2-------------------0--0-----------2---2-------------2-2-----|
D --------2---2-----------------0-0------------0-----------------2---2----|
A -------0---------------------2--------------------------------0---------|
E ----------------------------3-------------------------------------------|

  What have I done? I don't remember   no one knows just how I feel
          Am                  G                D                Am
e ------------------------------------------------0--0h2------------------|
B ----------0--0h1-----------------0-------------3-3---------------0--0h1-|
G ---------2-2-------------------0--0-----------2---2-------------2-2-----|
D --------2---2-----------------0-0------------0-----------------2---2----|
A -------0---------------------2--------------------------------0---------|
E ----------------------------3-------------------------------------------|

  And I know that my ti-ime..   is coming soon
 (strum)  E          G   D                 Am
e --------0----------1---2------------------------------------------------|
B --------0----------0---3--------------------0--0h1---1p0-----0--0h1-----|
G --------1----------0---2-------------------2-2-----------2--2-2---------|
D --------2----------0---0------------------2---2-----2---2--2---2--------|
A --------2----------2---x-----------------0----------------0-------------|
E --------0----------3---x------------------------------------------------|

(Strum)
            Am              G
Who is this man? This man beside me
       D                  Am
They call the King of the Jews
           Am                      G
They don't believe that He's the Messiah
     D                   Am
But, somehow I know it's true.

           E
And they laugh at Him in mockery,
      G                Am
and beat Him till he bleeds
      E
They nail Him to the rugged cross,


  and raise Him, O they raise Him up next to me
         G                D                   Am
e -------1----------------2-----------------------------------------------|
B -------0----------------3---------------------0--0h1---1p0-----0--0h1---|
G -------0----------------2--------------------2-2-----------2--2-2-------|
D -------0----------------0-------------------2---2-----2---2--2---2------|
A -------2----------------x------------------0----------------0-----------|
E -------3----------------x-----------------------------------------------|

 My time has come, I'm slowly fadin' but I deserve what I receive
          Am                  G                D                Am
e ------------------------------------------------0--0h2------------------|
B ----------0--0h1-----------------0-------------3-3---------------0--0h1-|
G ---------2-2-------------------0--0-----------2---2-------------2-2-----|
D --------2---2-----------------0-0------------0-----------------2---2----|
A -------0---------------------2--------------------------------0---------|
E ----------------------------3-------------------------------------------|

 Jesus when you are in your kingdom could you please remember me?
          Am                  G        (strum) D                Am
e ---------------------------------------------0-----------------0--------|
B ----------0--0h1-----------------0-----------3-----------------1--------|
G ---------2-2-------------------0--0----------2-----------------2--------|
D --------2---2-----------------0-0------------0-----------------2--------|
A -------0---------------------2---------------------------------0--------|
E ----------------------------3-------------------------------------------|

    E
He looks at me still holding on
         G                    Am
and the tears fall from His eyes
    E
He says I tell the truth
 G               D                  Am
Today, you will live with me in paradise  yeah
        E           G       D             Am
And I know that my time my time is comin soon  yeah
        E           G       D             Am
And I know that my time         is comin soon


  And I know      paradise      paradise...
 (strum) E            G             D
e -------0------------1----------------0--0h1-|
B -------0------------0---------------3-3-----|
G -------1------------0--------------2---2----|
D -------2------------0-------------0---------|
A -------2------------2-----------------------|
E -------0------------3-----------------------|

  Is coming soon
             Am
e ---------------------------------------|
B ---------------0--0h1---1p0-----0--0h1-|
G --------------2-2-----------2--2-2-----|
D -------------2---2-----2---2--2---2----|
A ------------0----------------0---------|
E ---------------------------------------|
Tap to rate this tab
# A B C D E F G H I J K L M N O P Q R S T U V W X Y Z