Guitaretab - guitar tabs
Song name
# A B C D E F G H I J K L M N O P Q R S T U V W X Y Z

Third Day - Alien tab

key:
\=slide down       /=slide up
h=hammer on        p=pull off
b=bend             r=return
v=vibrato
[ Tab from: http://www.guitaretab.com/t/third-day/19322.html ]
e-12------------------------------12-14-15--15-14-12--15-14-|
B-------15\-------------12-13v------------------------------|
G-----------14-14v---14-------------------------------------|
D-----------------------------------------------------------|
A-----------------------------------------------------------|
E-----------------------------------------------------------|
super fast run - 3:44 (basiclly a run down the Em scale)
e-12--------------------------------------------------12----|
B----15-13-12-----------------------------------------15b16-|
G-------------14-12-11h12/14-12p11--------------------------|
D----------------------------------14-12--------------------|
A-----------------------------------------------------------|
E----------------------------------------16-15v-------------|

e--------------------------------------12---15---12\--10\-|
B-12------12----------------12----------------------------|
G-14b15---14b15r14p12h14v---14b15r14----------------------|
D---------------------------------------------------------|
A---------------------------------------------------------|
E---------------------------------------------------------|

e-12\--10\--8\--7/---15v-----------------------12--15--12\-10-|
B---------------------------12\---7/----10v-------------------|
G-------------------------------------------------------------|
D---------------------------9\----4/----7---------------------|
A-------------------------------------------------------------|
E-------------------------------------------------------------|
Related for Alien tab
Alien chords by Third Day