Song name
# A B C D E F G H I J K L M N O P Q R S T U V W X Y Z

Third Day - All The Heavens tab

Help us improve GuitareTab! Take a short survey!
This is how I play All The Heavens when i'm by myself.  Third Day has three guitars 
in harmony with each other, but this is a good easy way to play it when your on your own.  I 
the intro down into two parts, you'll see why in a sec...

h-hammer on
p-pull off
/-back slide
{}-lighter note

Capo 1

Play slowly

(intro part 1)

   D
e--------------0----0h2-2--{2}--2-5-3-3p2p0-0--0-0-------|
B---0h3-3--3-3---3------0--{0}--0-0-----------3-----3p0--|
G--2----2------2--------------------0------------2--2----|  (x2)
D--------------------------------------------------------|
A--------------------------------------------------------|
E--------------------------------------------------------|

(intro part 2)

e--10-9-7-7-7/5-5p7-7-5/2-2--10-9-7-7-7-10-9--10-9-7-7-7/5-5p7-7-5/2-2h3---|
B--0--------0-------------0--0--------0----0--0--------0-------------0-----|
G-------0-----------0-------------0----------------0-----------0-----------|
D--------------------------------------------------------------------------|
A--------------------------------------------------------------------------|
E--------------------------------------------------------------------------|

e--3-3p2p0-0---0-0------|
B------------3------3---|p0   roll on into the song...
G--0-------------2--2---|
D-----------------------|
A-----------------------|
E-----------------------|

On the verses play (intro part 1)

ex.

Verse 1

   As Your children gather in peace...

   D
e--------------0----0h2-2--{2}--2-5-3-3p2p0-0--0-0-------|
B---0h3-3--3-3---3------0--{0}--0-0-----------3-----3p0--|
G--2----2------2--------------------0------------2--2----|  (x2)
D--------------------------------------------------------|
A--------------------------------------------------------|
E--------------------------------------------------------|

On the chorus play (intro part 2)

All the heavens can not hold you LORD...

e--10-9-7-7-7/5-5p7-7-5/2-2--10-9-7-7-7--10-9-10-9-7-7-7/5-5p7-7-5/2-2h3-|
B--0--------0-------------0--0--------0-----0-0--------0-------------0---|
G-------0-----------0-------------0----------------0-----------0---------|
D------------------------------------------------------------------------|
A------------------------------------------------------------------------|
E------------------------------------------------------------------------|

e--3-3p2p0-0---0-0----|
B------------3------3-|
G--0-------------2--2-|
D---------------------|
A---------------------|
E---------------------|

Now here's the outro

(Played slower than the intro)

   D
e--------------0----0h2-2--{2}--2-5-3-3p2p0-0--0-0-----|
B---0h3-3--3-3---3------0--{0}--0-0-----------3-----3--|
G--2----2------2--------------------0------------2--2--|
D------------------------------------------------------|
A------------------------------------------------------|
E------------------------------------------------------|

You just kinda gotta get a feal for the rythum, and the tempo changes, listenin' to the 
helps a bunch, that's how i tabbed this. God bless, good luck, hope it works for ya, and 
the way here's the lyrics, too.


Intro

Verse 1:
As Your childre gather in peace,
All the angels sing in heaven.
In Your temple all that i seek,
Is to glimpse Your holy prescence.

Chorus:
All the heavens can not hold You LORD,
How much less to dwell in me.
I can only make my one desire,
Holding on to Thee.

Verse 2:
All the angels exhalt You on high.
What a kingdom to depart.
Still You left Your throne in the sky,
Just to live inside my heart.

Chorus
All the heavens can not hold You LORD,
How much less to dwell in me.
I can only make my one desire,
Holding on to Thee.

I will always make my one desire,
Holding on to Thee.

Outro
Related for All The Heavens tab