Guitaretab - guitar tabs
Song name
# A B C D E F G H I J K L M N O P Q R S T U V W X Y Z

Third Eye Blind - Losing A Whole Year tab

artist: Third Eye Blind
album: Self-Titled
aong: Losing A Whole Year

**Standard Tuning** E-A-D-G-B-E

tabbed by: michael t. vincent - themysteriousmr@gmail.com

information: this is my first tab ever. it is in standard tuning.
however, it is originally played in another tuning, this is
as correct a tab as you will find for this song. it is for the lead
guitar part only. this covers the entire song. listen along to find
out how many times each section is played.

                         *Intro*
|----------------0-0--------|------------------0--------|
|-----------2---------2-----|----------------0----0-----|
|--------2-----1h--------1/-|-----------1--1h--------1/-|
|-----2---------------------|--------2---------------2/-|
|--4------------------------|-----2---------------------|
|---------------------------|--4------------------------|

|-----------------0--2------|------------------0--2-----|
|--4-------4----4-------4---|--------0--4----4-------4--|
|--4----4-------------------|--------------1h-----------|
|-------------6h------------|--1--4---------------------|
|---------------------------|---------------------------|
|---------------------------|---------------------------|


                        *Chorus*
|--0--0--0--0--0--0--0------|--0--0--0--0--0--0--0-----|
|--5--5--5--5--5--5--5------|--0--0--0--0--0--0--0-----|
|--6--6--6--6--6--6--6------|--1--1--1--1--1--1--1-----|
|--7--7--7--7--7--7--7--7---|--2--2--2--2--2--2--2-----|
|--7--7--7--7--7--7--7--7-0-|--2--2--2--2--2--2--2--0--|
|--9--9--9--9--9--9--9--9---|--4--4--4--4--4--4--4--2--|

|--0---0---0---0---0---0---0---0---|--0---0---0---0---0---0---0---0---|
|--7---7---7---7---7---7---7---7---|--7---7---7---7---7---7---7---7---|
|--8---8---8---8---8---8---8---8---|--8---8---8---8---8---8---8---8---|
|--9---9---9---9---9---9---9---9---|--9---9---9---9---9---9---9---9---|
|--9---9---9---9---9---9---9---9---|--9---9---9---9---9---9---9---9---|
|--11--11--11--11--11--11--11--11--|--11--11--11--11--11--11--11--11--|

[ Tab from: http://www.guitaretab.com/t/third-eye-blind/19352.html ]
                      *Verse*
|--0----0---0-------------|-------0---0--0---0--------|
|-------5---5-------------|-------0---0--0---0-0------|
|--6----6---6-------------|-------1---1--1---1-1------|
|--7----7---7-------------|-------2---2--2-----2------|
|--7----7---7----5--4-----|--2----2------------2--0---|
|--9----9---9--x-------2--|--4-------------2---4--2---|

|------------------0------|-------0----0------0-------|
|--4----4---4------7------|--4----7----7------7-------|
|--4----4---4------8------|--4----8----8------8-------|
|--4----4---4----2-9-4--4-|--4----9----9------9-------|
|--6----6---6--------6--4-|--6----9---------7---6~-0--|
|--------------x--------5-|-------11------x--------2--|


                  *Bridge*
|--0-0---0----0-----0--|--0-0-0-0----0-----0--0---|
|--0-0-5-0----0-----0--|--0-0-0-0----0-----0--0---|
|------4--1------------|---------1----------------|
|----4---2----4-2---2--|----4---2--2-4-2---2--2---|
|--0-7-0-x----7-0---0--|--0-7-0-x--x-7-0---0--0---|
|--5-5-5-4--4---2-4-2--|--5-5-5-4--4---2-4-2--2---|


                          *Solo*
|---------0--0---------------|--------------------------|
|---------------2r----2~-----|--------0-----------------|
|------2------------2----2h--|-------------1r----1------|
|----------------------------|-----2-----------2----2h--|
|--2/4---------------------4-|------------------------4-|
|----------------------------|--4-----------------------|

|--------2-------------------|--------2-----------------|
|-----0------0-4r--0-4--0h---|-----0------0-4r--0-4--0/-|
|----------------------------|--------------------------|
|--1-------------------------|--1-----------------------|
|-------------------------4--|--------------------------|
|----------------------------|--------------------------|


                           *Outro*
|--0--0--0--0--0--7-0--7-7--7-|--0--0--0--0--0--7-0--7-7--7-7---|
|--12-12-12-12-12-5-12-5-5--5-|--12-12-12-12-12-5-12-5-5--5-5---|
|--9-----9--9--9--1-9--1-9--1-|--9-----9--9--9--1-9--1-9--1-9---|
|--7--14-7--6--6--4-7--4-4--4-|--7--14-7--6--6--4-7--4-4--4-4---|
|--x-----x--x--x--x-x--x-x--x-|--x-----x--x--x--x-x--x-x--x-x---|
|--14-14-14-14-14---14---14---|--14-14-14-14-14---14---14---14--|

|--0--0--0--0--0--7-0--7-7--7-|--0--0--0--0--0--7-0--7-7--7-----|
|--12-12-12-12-12-5-12-5-5--5-|--12-12-12-12-12-5-12-5-7--7-----|
|--9-----9--9--9--1-9--1-9--1-|--9-----9--9--9--1-9--1-9--9-----|
|--7--14-7--6--6--4-7--4-4--4-|--7--14-7--6--6--4-7--4-7--7-----|
|--x-----x--x--x--x-x--x-x--x-|--x-----x--x--x--x-x--x-9--9-----|
|--14-14-14-14-14---14---14---|--14-14-14-14-14---14------------|

**FIN!**
Related for Losing A Whole Year tab
Losing A Whole Year chords by Third Eye Blind