Guitaretab - guitar tabs
Song name
# A B C D E F G H I J K L M N O P Q R S T U V W X Y Z

Third Eye Blind - Semi-charmed Life tab

---------------------------------------------------------------------
Semi-Charmed Life - Third eye Blind
---------------------------------------------------------------------
Tabbed by:_Samee_
Email:Tabee@contemporaryresources.com

The Song is the same throught
 g, d, dsus4, Cadd9 (Background through the whole song)

I have already written out the intro to this song on another page so the tab wouldn't be 
long "this starts from, "The sky was gold..."

 "The sky was gold..."
        "It was rose."
e|--------------------------------------------------------|
B|---12---12-10----13ties13-----13-----13-12-10--12ties---|
G|-12--12-------12-----------12----12---------------------|
D|--------------------------------------------------------|
A|--------------------------------------------------------|
E|--------------------------------------------------------|

	"Smiling in the pictures"
e|-------------------------------------------------------|
B|----12----12--10----------------10-8-----8--8---8h10---|
G|-12----12----------12----9ties9-------9----------------|
D|-------------------------------------------------------|
A|-------------------------------------------------------|
E|-------------------------------------------------------|

   "Stop.    I won't come down..."
e|-------------------------------------------------------------|
B|---12-----12---10-------13ties13------13-----13-12-10-12ties-|
G|-12---12-----------12--------------12-----12-----------------|
D|-------------------------------------------------------------|
A|-------------------------------------------------------------|
E|-------------------------------------------------------------|
"I took the hit that I was given."
e|--------------------------------------------------------------------|
B|----12----12---10----------------10--8---------1h3h1---0---1h0------|
G|-12----12----------12----9ties9----------9------------------------0-|
D|--------------------------------------------------------------------|
A|--------------------------------------------------------------------|
E|--------------------------------------------------------------------|

     D     C                      D                                        1-3time       
               4time
e|--2-2--3-3-3-3-3-3-3---|X3  e|--2---2------22-------2|
B|--3-3--3-3-3-3-3-3-3---|    B|--3---3------33-------3|
G|--2-2--0-0-0-0-0-0-0---|    G|--2---2------22-------2|
D|--0-0--0-0-0-0-0-0-0---|    D|--0---0------00-------0|
A|-------3-3--3-3-3-3-3--|    A|------------------------|
E|-----------------------|    E|------------------------|

   g               d         dsus4          Cadd9
e|-3-3-3-3-3-3-----2-2-2-2-2-3-----3-3-3-3-----3-3-3-3---3-3-| x4
B|-3-3-3-3-3-3-----3-3-3-3-3-3-----3-3-3-3-----3-3-3-3---3-3-|
G|-0-0-0-0-0-0-----2-2-2-2-2-2-----0-0-0-0-----0-0-0-0---0-0-|
D|-0-0-0-0-0-0-----0-0-0-0-0-0-----0-0-0-0-----0-0-0-0---0-0-|
A|-2-2-2-2-2-2---------------------3-3-3-3-----3-3-3-3---3-3-|
E|-3-3-3-3-3-3-----------------------------------------------|
[ Tab from: http://www.guitaretab.com/t/third-eye-blind/19355.html ]
"I believe in the sand beneath my feet..."
    G      D              Cadd9
e|-----3------------2------------0------0-----------| x2
B|---3----------3------0------1----1----------------|
G|-------0----------------------------0-------------|
D|----------0---------------------------------------|
A|------------------------3-------------------------|
E|-3------------------------------------------------|

   g               d        dsus4  Cadd9
e|-3-3-3-3-3-3-----2-2-2-2-2-3-----3-3-3-3-----3-3-3-3---3-3-|
B|-3-3-3-3-3-3-----3-3-3-3-3-3-----3-3-3-3-----3-3-3-3---3-3-|
G|-0-0-0-0-0-0-----2-2-2-2-2-2-----0-0-0-0-----0-0-0-0---0-0-|
D|-0-0-0-0-0-0-----0-0-0-0-0-0-----0-0-0-0-----0-0-0-0---0-0-|
A|-2-2-2-2-2-2---------------------3-3-3-3-----3-3-3-3---3-3-|
E|-3-3-3-3-3-3-----------------------------------------------|

    "Plane came in she said she was crashing..."
   D     C                 G
e|-2-2---3-3-3-3-3-3-3-----3-3-3-3-|x2
B|-3-3---3-3-3-3-3-3-3-----33-3-3-|
G|-2-2---0-0-0-0-0-0-0-----0-000-|
D|-0-0---0-0-0-0-0-0-0-----0-000-|
A|-------3-3-3-3-3-3-3-----xx-x-x-|
E|-------------------------3-333-|


 "One.        And you hold me.    And we are broken.
e|----------------------------------------------|
B|----------------------------------------------|
G|----------------------------------------------|
D|-----12-10-12-12------12-10-12----12-10-12----|
A|-10---------------10-----------10-------------|
E|----------------------------------------------|

"Still there's something I want to do just a little now"
e|--3-3-3-3---3-3-3-3----3-3---------|
B|--3-3-3-3---3-3-3-3----3-3---------|
G|--0-0-0-0---0-0-0-0----0-0---------|
D|--0-0-0-0---0-0-0-0----0-0---------|
A|--0-0-0-0---0-0-0-0----0-0---------|
E|--3-3-3-3---3-3-3-3----3-3---------|

   g               d         dsus4          Cadd9
e|-3-3-3-3-3-3-----2-2-2-2-2-3-----3-3-3-3-----3-3-3-3---3-3----| x8
B|-3-3-3-3-3-3-----3-3-3-3-3-3-----3-3-3-3-----3-3-3-3---3-3----|
G|-0-0-0-0-0-0-----2-2-2-2-2-2-----0-0-0-0-----0-0-0-0---0-0----|
D|-0-0-0-0-0-0-----0-0-0-0-0-0-----0-0-0-0-----0-0-0-0---0-0----|
A|-2-2-2-2-2-2---------------------3-3-3-3-----3-3-3-3---3-3----|
E|-3-3-3-3-3-3--------------------------------------------------|

   "good-by..."
e|----------------------------------------|x3
B|----------------------------------------|
G|---------0---------0-----------2--------|
D|-----2----------0----------2------------|
A|--3----------2---------0----------------|
E|----------------------------------------|

  "Do, do, do..."
   g               d        dsus4  Cadd9
e|-3-3-3-3-3-3-----2-2-2-2-2-3-----3-3-3-3-----3-3-3-3---3-3----| x8
B|-3-3-3-3-3-3-----3-3-3-3-3-3-----3-3-3-3-----3-3-3-3---3-3----|
G|-0-0-0-0-0-0-----2-2-2-2-2-2-----0-0-0-0-----0-0-0-0---0-0----|
D|-0-0-0-0-0-0-----0-0-0-0-0-0-----0-0-0-0-----0-0-0-0---0-0----|
A|-2-2-2-2-2-2---------------------3-3-3-3-----3-3-3-3---3-3----|
E|-3-3-3-3-3-3--------------------------------------------------|

   "good-by..."
e|------------------------------------------|
B|------------------------------------------|
G|---------0---------0-----------2----------|
D|-----2----------0----------2--------------|
A|--3----------2---------0------------------|
E|------------------------------------------|

Thanks for using my tab :P
Related for Semi-charmed Life tab