Song name
# A B C D E F G H I J K L M N O P Q R S T U V W X Y Z

Thirteen Senses - Contact tab

The Solo starting at 4:38
99% sure on all notes. The fingering is easy to pick up.
Standard tuning.
                           Starting at 4:39 mark:
"The great peace that we all seek..."
e-------------------------------------------------------------------------|
B-------------------------------------------------------------------------|
G--8h10--8h10--8h10--10-8-------------------------------------------------|
D------------------------8-10/12\10----------8----------------------------|
A----------------------------------10----8h10--10p8/6---------------------|
E-----------------------------------------------------8-6-----------------|

e-------------------------------------------------------------------------|
B-------------------------------------------------------------------------|
G--10-8---------8h10/12--12....--10-8-------------------------------------|
D-------8h10/12----------------------8-10/12\10----------8----------------|
A----------------------------------------------10----8h10--10p8/6---------|
E-----------------------------------------------------------------8-6-----|

e-------------------------------------------------------------------------|
B-------------------------------------------------------------------------|
G--10-8---------8-10...----10-8-------------------------------------------|
D------10/12--8----------------8-10/12\10----------8----------------------|
A----------------------------------------10----8h10--10p8/6---------------|
E-----------------------------------------------------------8-6-----------|

e-------------------------------------------------------------------------|
B-------------------------------------------------------------------------|
G--10-8----------------8h10/12\10--10-10-10-10-8-8-8-8--------------------|
D--------10/12----8h10---------------------------------10-10-10-10-8-8--8-|
A--------------10---------------------------------------------------------|
E-------------------------------------------------------------------------|

e-------------------------------------------------------------------------|
B-------------------------------------------------------------------------|
G-------------------------------------------------------------------------|
D-----8--------------------------8h10/12-------10...(wont you come down.)-|
A--10---10--6-8-6/1---------8h10---------10-10----------------------------|
E------------------1-1-1-1/-----------------------------------------------|
                                                     Tabbed By- Dutton Webb
Enjoy! its my first tab, so be easy.
Tap to rate this tab
 
# A B C D E F G H I J K L M N O P Q R S T U V W X Y Z