Song name
# A B C D E F G H I J K L M N O P Q R S T U V W X Y Z

Thirteen Senses - Into The Fire tab

Yoho, here's the tab for Thirteen Senses Into The Fire. Lissen to the cd the timing. its 
when you know when to play wich part. Good luck,
Sonny

Intro:

E|-5-6-5--2-2-2------------------|
B|-7-7-7--2-2-2-6-6-6------------|
G|-8-8-8--3-3-3-6-6-6------------|
D|-8-8-8--4-4-4-6-6-6-6-6--------|
A|-6-6-6--4-4-4-4-4-4-6-6--------|
E|--------2-2-2-------4-4--------|

Riff 1
E|----------------------------------------------|
B|----------------------------------------------|
G|---15-13-------15-13------15-13-------16-15---|
D|-13------13-13-------11-11------13-13---------|
A|----------------------------------------------|
E|----------------------------------------------|

Verse
E|-5-6-5--2-2-2------------------|
B|-7-7-7--2-2-2-6-6-6------------|
G|-8-8-8--3-3-3-6-6-6------------|
D|-8-8-8--4-4-4-6-6-6-6-6--------|
A|-6-6-6--4-4-4-4-4-4-6-6--------|
E|--------2-2-2-------4-4--------|
Come on, come on
Put your hands into the fire
Explain, explain
As I turn and meet the power


Little guitar riff (lissen closely Not Perfect)
Riff 2
E|---------------------------------------|
A|-14-11---------------------------------|
G|-------13-11---------------------------|
D|-------------13-11---------------------|
A|-------------------13-12-11------------|
E|----------------------------14-11-9 11-|

This time, This time
Turning white and senses dire
Pull up, pull up
From one extreme to another

chorus
E|-5-6-5--2-2-2---------------------|
B|-7-7-7--2-2-2-6-6-6/4-4-4---------|
G|-8-8-8--3-3-3-6-6-6/4-4-4---------|
D|-8-8-8--4-4-4-6-6-6/4-4-4---------|
A|-6-6-6--4-4-4-4-4-4/2-2-2---------|
E|--------2-2-2---------------------|

From the summer to the spring
From the mountain to the air
From Samaritan to sin
And it痴 waiting on the end

Repeat Verse and Riff 2

Come on, come on
Put your hands into the fire
Explain, explain
As I turn and meet the power
This time, This time
Turning white and sense dire
Pull up, pull up
From one extreme to another

Chorus
From the summer to the spring
From the mountain to the air
From Samaritan to sin
And it痴 waiting on the end

Bridge
E|-2---2--------|
B|-2---2--------|
G|-3-6-3-4------|
D|-4-6-4-4------|
A|-4-4-4-2------|
E|-2---2--------|

and now I知 alone I知 looking out
I知 looking in, way down
The lights are dim
and now I知 alone I知 looking out
I知 looking in, way down
The lights are dim

ooooooh part

E|----------------------------|
B|----------------------------|
G|----------------------------|
D|-4-4-2-6-6-4-3-3-3-4--------|
A|-4-4-4-6-6-6-3-3-3-4--------|
E|-2-2-4-4-4-6-1-1-1-2--------|

Riff 3
E|------------------------------------------------------|
B|------------------------------------------------------|
G|-15-13---15-13----15-13--15-13---15-13--15-13---------|
D|-------13------13--------------11-----11--------------|
A|------------------------------------------------------|
E|------------------------------------------------------|

Riff 3 Cont'd
E|--------------------------------------------------------|
B|--------------------------------------------------------|
G|-15-13----15-13----15-13-15-13---15-13----15-13---------|
D|-------11-------11-------------13------13---------------|
A|--------------------------------------------------------|
E|--------------------------------------------------------|

I'll update the rest within a week
Comments, Send 'm to Bust_my_rhymez@hotmail.com
Tap to rate this tab
 
# A B C D E F G H I J K L M N O P Q R S T U V W X Y Z