Song name
# A B C D E F G H I J K L M N O P Q R S T U V W X Y Z

This Will Destroy You - Freedom Blade tab

"Freedom Blade"


From the EP split "Field Studies" (w/Lymbyc Systym)
Copyright - Magic Bullet Records


TABBED EXCLUSIVELY FOR ULTIMATE-GUITAR.COM


Music:
Jeremey Gallindo
Chris King
Donovan Jones
Andrew Miller


NOTE: Here is Jeremy's part to Freedom Blade. The bulk of this song is made
up of Chris using an ebow and also various added string instruments (if
you've seen them play this live, you know what I mean). I couldn't be
bothered to tab Chris' part. If someone out there would like to, go right
ahead. I'll add it to this tab and give you credit for it.

Any questions, comments, etc, feel free to drop me an e-mail at:
catastrophe.and.the.cure AT live DOT com

replace the "AT" and "DOT" with the appropriate symbols :)




FREEDOM BLADE
Tuning (low to high): C# G# C# F# A# d#


	
	[0:07]

|-------------------------------------------------------------|
|-------------------------------------------------------------|
|--2----4----7----6----2--------7----9----11----4--------2----|
|-------------------------------------------------------------|
|-------------------------------------------------------------|
|--4----5----9----7----4--------5----7----12----5--------4----|



	[0:32]				[0:45]

|--------------------------------------------------------------|
|--------------------------------------------------------------|
|--7----9----11----6--------2--------4----7----6----2----------|
|--------------------------------------------------------------|
|--------------------------------------------------------------|
|--5----7----12----7--------4--------5----9----7----4----------|



	[0:56]

|------------------------------------------------------------------
|--7-----------7--------7-----------7--------8--------------8------
|-----------------------------------------------7------------------
|-----7--5--7-----5--7-----7--5--7-----5--7--------------9---------
|--5--------------------5--------------------7-----10----------10--
|------------------------------------------------------------------


 -------------------------------------------------------|
 --7-----------7--------7-----------7--------8----------|
 -----------------------------------------------0-------|
 -----7--5--7-----5--7-----7--5--7-----5--7--------9----|
 --5-----------------------------------------7----------|
 -------------------------------------------------------|


	[1:22]

|------------------------------------------------------|
|--12--------------15----------14----------12----------|
|------------------------------------------------------|
|--------12--------------16----------14----------12----|
|--10--------------14----------12----------10----------|
|------------------------------------------------------|


|------------------------------------------------------|
|--19--------------15----------14----------12----------|
|------------------------------------------------------|
|--------19--------------16----------14----------12----|
|--17--------------14----------12----------10----------|
|------------------------------------------------------|


	[1:48]

|--------------------------------------------------------------|
|--------------------------------------------------------------|
|--11--------4--------2--------4----6----7--------9-----11-----|
|--------------------------------------------------------------|
|-------------------------------------------------0------------|
|--12--------5--------4--------5----7----9--------------12-----|


	[2:17]

|--------------------------------------------------------------|
|--------------------------------------------------------------|
|--4--------2--------4----6----7--------9-----11--------------.|
|-------------------------------------------------------------.|
|---------------------------------------0----------------------|
|--5--------4--------5----7----9--------------12---------------|


(Repeat until 3:31, play last chord and fade out)


END
Tap to rate this tab
# A B C D E F G H I J K L M N O P Q R S T U V W X Y Z