Guitaretab - guitar tabs
Song name
# A B C D E F G H I J K L M N O P Q R S T U V W X Y Z

Thousand Foot Krutch - Small Town tab

this is my first try at this. so if you dont like it... poopy on you.
email me if you have suggestions at timdpinney@hotmail.com

tuning: d tuning

 intro/1st verse
e ----------------|
B ----------------|
G ----------------|   REPEAT 12 TIMES
D -8-8-8-9--1-----|
A -8-8-8-9--1-----|
D -8-8-8-9--1-----|

 chorus
e ----------------------|
B ----------------------|
G ----------------------|   REPAET TWICE
D -4-4/6/8/10/11--1-----|
A -4-4/6/8/10/11--1-----|
D -4-4/6/8/10/11--1-----|

 2nd verse
e ----------------|
B ----------------|
G ----------------|   REPEAT 10 TIMES
D -8-8-8-9--1-----|
A -8-8-8-9--1-----|
D -8-8-8-9--1-----|

 repeat chorus
[ Tab from: http://www.guitaretab.com/t/thousand-foot-krutch/130054.html ]
 break
e ----------------|
B ----------------|
G ----------------|   REPEAT 3 TIMES
D -8-8-8-9--1-----|
A -8-8-8-9--1-----|
D -8-8-8-9--1-----|

 HEAVY DISTORTION
e ----------------|
B ----------------|
G ----------------|   REPEAT TWICE
D -8-8-8-9--1-----|
A -8-8-8-9--1-----|
D -8-8-8-9--1-----|

 BRIDGE ACOUSTIC
e ---------------------------|
B ---------------------------|
G ---------------------------|    REPEAT 3 TIMES
D -4-4--6-6---11-11/10/8-----|
A -4-4--6-6---11-11/10/8-----|
D -4-4--6-6---11-11/10/8-----|

 DISTORTION
e ---------------------------|
B ---------------------------|
G ---------------------------|    REPAT UNTIL THE END OF THE SONG
D -4-4--6-6---11-11/10/8-----|
A -4-4--6-6---11-11/10/8-----|
D -4-4--6-6---11-11/10/8-----|

well thats it. hope you like it
Related for Small Town tab
Advertisement will be closed in 10 seconds