Song name
# A B C D E F G H I J K L M N O P Q R S T U V W X Y Z

Thousand Foot Krutch - Watching Over Me chords

Highlighted       Show chord diagrams
Watching Over Me
Thousand Foot Krutch
Welcome to the Masquerade (2009)

Verse 1:
             F                          Am
Don't lie to me; I've seen everything I need,
                       F                            Am
And I've heard all the requests, like a symphony of thieves
              F                     Am
Don't cry for me, I don't need your sympathy.
                      F                          Am
I've got everything I need right here inside of me

PreChorus:
      Bbm
And I know it's not that simple,
      Am                               Gm                         C
But I think I'll get it right, 'cause no one else is listening tonight

Chorus:
D                 A                    Bm
I know you're out there and I know you care
                   G             A
'cause I feel you like an angel watching over me
D                 A                    Bm
I know you're out there and I know you care
                   G             A
'cause I feel you like an angel watching over me

Interlude:
D    A   B   G 

Interlude (Lead)
e|-12-12-12-10-10-10-x3---------------------------------------|
B|----------------------12-12-12-10-10-10---------------------|
G|------------------------------------------------------------|
D|------------------------------------------------------------|
A|------------------------------------------------------------|
E|------------------------------------------------------------|

e|-12-12-12-10-10-10-12-12-12h13-10-10-10--10-10-10-10-10-10--|
B|------------------------------------------------------------|
G|------------------------------------------------------------|
D|------------------------------------------------------------|
A|------------------------------------------------------------|
E|------------------------------------------------------------|

Verse 2:
              F                 Am
Don't shut me out. I'm arson to myself
                      F                           Am
Who can't put out the fires until there's nothing left
                  F                        Am
so take my broken glass and help me make a window
                  F                                  Am
So I can see your face after all that I have been through

Instrumental:
D    G   D   G

Instrumental(Lead)
e|---------------------------|
B|---------------------------|
G|--------7------------------|
D|------7---7---5-5-5h7------|
A|----5----------------------|  x2
E|---------------------------|



Tabbed this out while listening to the song. Hopefully 100% right.
If not, please let me know what's wrong and i'll fix it.
Tap to rate this tab
# A B C D E F G H I J K L M N O P Q R S T U V W X Y Z