Song name
# A B C D E F G H I J K L M N O P Q R S T U V W X Y Z

Thousand Foot Krutch - We Are tab

-------------------------------------------------------------------------
                       We Are - Thousand Foot Krutch
-------------------------------------------------------------------------
Tabbed by: disaster015

Tuning:Drop B (B,F#,B,E,G#,Db)


Intro:

Db|--------------------------------------------------------|
G#|--------------------------------------------------------|
 E|--------------------------------------------------------|
 B|--0-8p7-0-0-0--0-8p7-0-0----0-8p7-0-0-0--0-8p7-0-0-10---|x2
F#|--0-8p7-0-0-0--0-8p7-0-0----0-8p7-0-0-0--0-8p7-0-0-10---|
 B|--0-8p7-0-0-0--0-8p7-0-0----0-8p7-0-0-0--0-8p7-0-0-10---|


Verse 1:

(0:22) "It's like a fire..."

Db|-------------------------------------------------------------|
G#|-------------------------------------------------------------|
 E|-------------------------------------------------------------|
 B|-0-10--0-8p7-0-0-0--0-8p7-0-0----0-8p7-0-0-0--0-8p7-0-0-10---|
F#|-0-10--0-8p7-0-0-0--0-8p7-0-0----0-8p7-0-0-0--0-8p7-0-0-10---|
 B|-0-10--0-8p7-0-0-0--0-8p7-0-0----0-8p7-0-0-0--0-8p7-0-0-10---|


Pre Chorus: (Muted)
(0:31) "But I can't just..."

Db|------------------------------------------------------|
G#|------------------------------------------------------|
 E|------------------------------------------------------|
 B|--8-8-8-8-8-8-8-8--10-10-10-10--11-11-11-11-----------|
F#|--8-8-8-8-8-8-8-8--10-10-10-10--11-11-11-11-----------|
 B|--8-8-8-8-8-8-8-8--10-10-10-10--11-11-11-11-----------|

Db|------------------------------|
G#|------------------------------|
 E|------------------------------|
 B|--0-8p7-0-0-0--0-8p7-0-0-10---|
F#|--0-8p7-0-0-0--0-8p7-0-0-10---|
 B|--0-8p7-0-0-0--0-8p7-0-0-10---|

(0:39) "If we don't..."
Db|--------------------------------|
G#|--------------------------------|
 E|--------------------------------|
 B|--8-8-8-8-8-8-8-8--10----10-10--|
F#|--8-8-8-8-8-8-8-8--10----10-10--|
 B|--8-8-8-8-8-8-8-8--10----10-10--|


Chorus:

(0:43) "We are the ones.."
Db|-----------------------------------------------------------|
G#|-----------------------------------------------------------|
 E|-----------------------------------------------------------|
 B|--3p0--xx-xx-xx--3p0-3p0--xx-xx-xx-xx--8--------7-------6--|
F#|--3p0--xx-xx-xx--3p0-3p0--xx-xx-xx-xx--8--------7-------6--|
 B|--3p0--xx-xx-xx--3p0-3p0--xx-xx-xx-xx--8--------7-------6--|

Db|----------------------------------------------------|
G#|----------------------------------------------------|
 E|----------------------------------------------------|
 B|--3p0--xx-xx-xx--3p0-3p0--xx-xx-xx-xx--8--------10--|
F#|--3p0--xx-xx-xx--3p0-3p0--xx-xx-xx-xx--8--------10--|
 B|--3p0--xx-xx-xx--3p0-3p0--xx-xx-xx-xx--8--------10--|


Post Chorus:
(0:58)

Db|--------------------------------------------------------|
G#|--------------------------------------------------------|
 E|--------------------------------------------------------|
 B|--0-8p7-0-0-0--0-8p7-0-0----0-8p7-0-0-0--0-8p7-0-0-10---|
F#|--0-8p7-0-0-0--0-8p7-0-0----0-8p7-0-0-0--0-8p7-0-0-10---|
 B|--0-8p7-0-0-0--0-8p7-0-0----0-8p7-0-0-0--0-8p7-0-0-10---|


Verse 2:

(1:07) "My heart is..."
Db|---20-------------------------------------|
G#|------------------------------------------|
 E|-------------------9--10------------------|
 B|------------------------------------------|
F#|------------------------------------------|
 B|------------------------------------------|

(1:14) "Cause what we're fighting..."
Db|-------------------------------------------------------------|
G#|-------------------------------------------------------------|
 E|-------------------------------------------------------------|
 B|-0-10--0-8p7-0-0-0--0-8p7-0-0----0-8p7-0-0-0--0-8p7-0-0-10---|
F#|-0-10--0-8p7-0-0-0--0-8p7-0-0----0-8p7-0-0-0--0-8p7-0-0-10---|
 B|-0-10--0-8p7-0-0-0--0-8p7-0-0----0-8p7-0-0-0--0-8p7-0-0-10---|


Pre-Chorus: (same as the first)


Chorus:

(1:35) "We are the ones.."
Db|-----------------------------------------------------------|
G#|-----------------------------------------------------------|
 E|-----------------------------------------------------------|
 B|--3p0--xx-xx-xx--3p0-3p0--xx-xx-xx-xx--8--------7-------6--|
F#|--3p0--xx-xx-xx--3p0-3p0--xx-xx-xx-xx--8--------7-------6--|
 B|--3p0--xx-xx-xx--3p0-3p0--xx-xx-xx-xx--8--------7-------6--|
                                                                   x2
Db|----------------------------------------------------|
G#|----------------------------------------------------|
 E|----------------------------------------------------|
 B|--3p0--xx-xx-xx--3p0-3p0--xx-xx-xx-xx--8--------10--|
F#|--3p0--xx-xx-xx--3p0-3p0--xx-xx-xx-xx--8--------10--|
 B|--3p0--xx-xx-xx--3p0-3p0--xx-xx-xx-xx--8--------10--|


Bridge: two guitars

(2:06) Both guitars
Db|--------------------------|
G#|--------------------------|
 E|--------------------------|x2
 B|-0-3-0----0-3-0-6\5\3-----|
F#|-0-3-0----0-3-0-6\5\3-----|
 B|-0-3-0----0-3-0-6\5\3-----|

(2:13) Guitar 1

Db|----------------------------|
G#|----------------------------|
 E|----------------------------|
 B|-0-3-0-0----0-3-0-6\5\3-----|
F#|-0-3-0-0----0-3-0-6\5\3-----|
 B|-0-3-0-0----0-3-0-6\5\3-----|

Db|----------------------------|
G#|----------------------------|
 E|----------------------------|
 B|-0-3-0-0----0-3-0-6-6-6-----|
F#|-0-3-0-0----0-3-0-6-6-6-----|
 B|-0-3-0-0----0-3-0-6-6-6-----|

(2:13) Guitar 2

Db|---------------------------------------------------------|
G#|---------------------------------------------------------|
 E|---10-12p10--12b14---12b14-12b14-12b14-12b14-------------|
 B|---------------------------------------------15p14p12----|
F#|---------------------------------------------------------|
 B|---------------------------------------------------------|

Db|--------------------------------------|
G#|------------------15-13---------------|
 E|--14-12-----------------12-12-12------|
 B|--------15-12-14-----------------12---|
F#|--------------------------------------|
 B|--------------------------------------|

(2:22) Both Guitars

Db|-----------------------------|
G#|-----------------------------|
 E|-----------------------------|
 B|-0-3-0-0-0---0-3-0-6\5\3-----|
F#|-0-3-0-0-0---0-3-0-6\5\3-----|
 B|-0-3-0-0-0---0-3-0-6\5\3-----|


Pre Chorus:(muted)

(2:30) "If we don't..."
Db|--------------------------------|
G#|--------------------------------|
 E|--------------------------------|
 B|--8-8-8-8-8-8-8-8--10----10-10--|
F#|--8-8-8-8-8-8-8-8--10----10-10--|
 B|--8-8-8-8-8-8-8-8--10----10-10--|


Chorus:Guitar 1

Db|-----------------------------------------------------------|
G#|-----------------------------------------------------------|
 E|-----------------------------------------------------------|
 B|--3p0--xx-xx-xx--3p0-3p0--xx-xx-xx-xx--8--------7-------6--|
F#|--3p0--xx-xx-xx--3p0-3p0--xx-xx-xx-xx--8--------7-------6--|
 B|--3p0--xx-xx-xx--3p0-3p0--xx-xx-xx-xx--8--------7-------6--|
                                                                   x2
Db|----------------------------------------------------|
G#|----------------------------------------------------|
 E|----------------------------------------------------|
 B|--3p0--xx-xx-xx--3p0-3p0--xx-xx-xx-xx--8--------10--|
F#|--3p0--xx-xx-xx--3p0-3p0--xx-xx-xx-xx--8--------10--|
 B|--3p0--xx-xx-xx--3p0-3p0--xx-xx-xx-xx--8--------10--|


Guitar 2:

(2:50)
Db|------------------------------------|
G#|------------------------------------|
 E|--7--------9--10--14------12--10----|x2
 B|------------------------------------|
F#|------------------------------------|
 B|------------------------------------|


Outro:two guitars


Guitar 1:

Db|-----------------|
G#|-----------------|
 E|-----------------|
 B|-0-3-0-6\5\3-----|x3
F#|-0-3-0-6\5\3-----|
 B|-0-3-0-6\5\3-----|

Db|---------|
G#|---------|
 E|---------|
 B|-0-0-0-0-|
F#|-0-0-0-0-|
 B|-0-0-0-0-|

Guitar 2:

Db|-------------------------------------------------|
G#|--17------18-------------------------------------|
 E|--------------------------/14-12-10--------------|
 B|----------------12-15-17-------------12-12-12-12-|
F#|-------------------------------------------------|
 B|-------------------------------------------------|


************************************

| /   slide up
| \   slide down
| h   hammer-on
| p   pull-off
| ~   vibrato
| +   harmonic
| x   Mute note
| b   Bend
| pb  Pre-bend
| br  Bend release
| pbr Pre-bend release
| brb Bend release bend

************************************
Tap to rate this tab
 
# A B C D E F G H I J K L M N O P Q R S T U V W X Y Z