Song name
# A B C D E F G H I J K L M N O P Q R S T U V W X Y Z

Three Amigos - Blue Shadows tab

E--------------------------------------------------------------
A--------------------------------------------------------------
B--------------------------------------------------------------
D--------------------------------------------------------------
G-----2---4---2-----2---4---2-----2---4---2---2----4---3---2---
e--0-------------1-------------2-------------------------------



E---------------------------------------------------------------
A---------------------------------------------------------------
B---------------------------------------------------------------
D---------------------------------------------------------------
G-----2---4---2-----2---4---2------2---4---2---2---4---3---2----
e--0-------------1-------------2----------------------------0---
Tap to rate this tab
 
# A B C D E F G H I J K L M N O P Q R S T U V W X Y Z